Oops, an error
Loading. Please wait.

You Found Me chords

550 views 3 this week
no commentswrite comment
1 2 3 4 5
1 last vote to show rating
add to favorites
×
Save as Personal and add changes to this tab that will be seen only by you. Learn more ›
×
You can save this tab as Personal to edit and correct it or add notes. All changes will be seen only by you. Learn more »
launch autoscroll
font size
0
reset
transpose
0
reset
simplify chords
display chords
guitar tuner
edit
Autoscroll
slow
fast
+/-
esc
set tempo
stop
Author
Strumming
There is no strumming pattern for this song yet. and get +5 IQ
Learned by Ear :)
[Chords]:
    E   Bm7  A  G#aug  C#m6  Amaj7  F#m7  G#m7  B   Emaj7**
E|--0----2---0----4-----x-----x-----x-----x-----x----4----------
B|--0----3---2----5-----5-----5-----2-----4-----x----4----------
G|--1----2---2----5-----6-----6-----2-----4-----4----4----------
D|--2----4---2----6-----6-----6-----2-----4-----1----6----------
A|--2----2---0----x-----x-----x-----x-----x-----2----7----------
E|--0----2---0----x-----6-----5-----2-----4-----x----x----------

P.S. The end part of the chorus and the outro are basically a repeat of intro
---------------------------------------------------------------------

[Intro]:
     Emaj7       Amaj7*    Emaj7       Amaj7*  Emaj7*             Amaj7**
E|---------------4--------------------4---------------------------------------------|
B|---4----4-x----5--------4----4-x----5------4----4-x----4------2----2-x------------|
G|---1----1-x----6--------1----1-x----6------4----4-x----4------1----1-x------------|
D|---2----2-x----6--------2----2-x----6------2----2-x----2------2----2-x------------|
A|----------------------------------------------------------------------------------|
E|----------------------------------------------------------------------------------|

     Emaj7       Amaj7*   Emaj7       Amaj7*
E|---------------4--------------------4--|
B|---4----4-x----5--------4----4-x----5--|
G|---1----1-x----6--------1----1-x----6--|
D|---2----2-x----6--------2----2-x----6--|
A|---------------------------------------|
E|---------------------------------------|

[Verse]:
E                           Bm7
Growing up they never said 'I love you'
A                             G#aug
Growing up they never said 'I care'
       E                    Bm7
Had to figure out what they didn't say
      A                G#aug
And I never knew how

     E                                     Bm7
They spoke to me with accessories and some dollar bills
      A                     G#aug
We've already gone over the hill
E                               Bm7
How I thought I didn't need something to feel
       A            G#aug
But to broken in

[Chorus]:
         C#m6
Then you found me
    Amaj7
You didn't buy the front that I was showing everybody
    E
You found me
    G#m7
You saw the scared boy inside of me that knew nothing
C#m6
Found me
   Amaj7
My flaws you found perfect you loved me

[Instrumental]:
E   B

[Verse]:
E                          Bm7
Sorry that I couldn't give what I should have
A                         G#aug
You were so patient I'm a lucky man
E                                  Bm7
Took a chance to show me something beautiful
        A
And I'm learning more
    G#aug
I'm loving more

[Chorus]:
         C#m6
Then you found me
    Amaj7
You didn't buy the front that I was showing everybody
    E
You found me
    G#m7
You saw the scared boy inside of me that knew nothing
C#m6
Found me
   Amaj7
My flaws you found perfect you loved me
F#m7
  You loved me
G#m7        C#m6     Amaj7
  You loved me

[Bridge]:
        E
Finally breathing
            G#m7
I'm finally breathing
    C#m6   Amaj7
You found
        E
This is breathing
            G#m7
I'm finally breathing

[Chorus]:
    C#m6
You found me
Amaj7
Didn't buy the front that I was showing everybody
    E
You found me
    G#m7
You saw the scared boy inside of me that knew nothing
C#m6
Found me
   Amaj7
My flaws you found perfect
   Emaj7           Amaj7*  Emaj7  Amaj7*
My flaws you found perfect
          Emaj7* Amaj7**
You loved me


[Outro]:
       Emaj7    Amaj7* Emaj7 Amaj7*
Oh you loved me
       Emaj7*   Amaj7**
Oh you loved me
    Emaj7 Amaj7* Emaj7 Amaj7* Emaj7**
You loved me

            
            
Suggest correction
Creating personal tab
Creating personal tab
You can edit any tab online and save it as your Personal.

You can edit, replace or remove any tab part or add personal notes – all changes will be seen only by you.

Personal tabs can be accessed anytime from any device, even offline.
Learn more »
Give kudos to tab author, rate the tab!
1 2 3 4 5
comments
print report bad tab
guest
You may want to rate the tab now too:
select rating
Wanna post a correction for this tab? Suggest correction