Oops, an error
Loading. Please wait.

Always Be My Baby tab

version 1
version 1

Whole song

80,988 views 30 this week
5 commentsread comments
1 2 3 4 5
x 10
add to favorites
×
Save as Personal and add changes to this tab that will be seen only by you. Learn more ›
×
You can save this tab as Personal to edit and correct it or add notes. All changes will be seen only by you. Learn more »
launch autoscroll
font size
0
reset
how to read this tab
guitar tuner
edit
Autoscroll
slow
fast
+/-
esc
set tempo
stop
Tuning (Eb-Ab-Db-Gb-Bb-Eb)

[Verse 1]
(00:00-00:34)

(Guitar 1)
(Acoustic)
Eb|-3---3---3---3---|-3---3---3---3-------|-3---3---3---3--|-3---3---3--3---|-3---3---3-3--|
Bb|-3---3---3---3---|-3---3---3---3-------|-3---3---3---3--|-3---3---3--3---|-3---3---3-3--|
Gb|-0---0---0---0---|-0---0---0---0-------|-0---0---0---0--|-0---0---0--0---|-2---2---2-2--|
Db|-0---0---0---0---|-0---0---0---0-------|-2---2---2---2--|-2---2---2--2---|-2---2---0-0--|
Ab|-2---2---2---2---|-2---2---2---2-------|-2---2---2---2--|-3-3-3-3-3--3---|-0-0-0-0------|
Eb|-3-3-3-3-3-3-3-3-|-3-3-3-3-3-3-3-------|-0-0-0-0-0-0-0--|----------------|--------------|
                                                                                         
(Guitar 2)
(Electric-clean)                                                                 
Eb|-----------------|---------------------|----------------|----------------|--------------|
Bb|-----3-----3~----|-----3------3~-------|-----3-----3~---|-----3-----3~---|-----3-----3~-|
Gb|---0---0---------|---0---0-----------0-|---0---0--------|---0---0--------|---0---0------|
Db|-----------------|---------------2/4---|-2-------2----0-|----------------|--------------|
Ab|-----------------|---------------------|----------------|-3-------3----2-|-0-------0----|
Eb|-3-------3-------|-3--------3----------|----------------|----------------|--------------|

(Guitar 1)
(Acoustic)
Eb|-3---3---3---3-------|-3---3---3---3--|-3---3---3--3---|-3---3---3~-----------------|
Bb|-3---3---3---3-------|-3---3---3---3--|-3---3---3--3---|-3---3---3~-----------------|
Gb|-0---0---0---0-------|-0---0---0---0--|-0---0---0--0---|-2---2---2~-----------------|
Db|-0---0---0---0-------|-2---2---2---2--|-2---2---2--2---|-2---2---0~-----------------|
Ab|-2---2---2---2-------|-2---2---2---2--|-3-3-3-3-3--3---|-0-0-0----------------------|
Eb|-3-3-3-3-3-3-3-------|-0-0-0-0-0-0-0--|----------------|----------------------------|
                                                                                      
(Guitar 2)
(Electric-clean)                                                              
Eb|---------------------|----------------|----------------|----------------------------|
Bb|-----3------3~-------|-----3-----3~---|-----3-----3~---|-----3-----3~------3-----3~-|
Gb|---0---0-----------0-|---0---0--------|---0---0--------|---0---0---------0---0------|
Db|---------------2/4---|-2-------2----0-|----------------|---------------0-------0----|
Ab|---------------------|----------------|-3-------3----2-|-0-------0------------------|
Eb|-3--------3----------|----------------|----------------|----------------------------|

[Chorus 1]
(00:35-01:09)
(Guitar 1)
(Acoustic)
Eb|-3---3---3---3-|-3---3---3---3-|-3---3---3---3-|-3---3---3---3-|
Bb|-3---3---3---3-|-3---3---3---3-|-3---3---3---3-|-3---3---3---3-|
Gb|-0---0---0---0-|-0---0---0---0-|-0---0---0---0-|-0---0---2---2-|
Db|-0---0---0---0-|-2---2---2---2-|-2---2---2---2-|-2---2---0---0-|
Ab|-2---2---2---2-|-3-3-3-3-3-3-3-|-2---2---2---2-|-3-3-3---------|
Eb|-3-3-3-3-3-3-3-|---------------|-0-0-0-0-0-0-0-|---------------|
                                                                 
(Guitar 2)
(Electric-clean)                                         
Eb|-3~------------|-3~------------|-3~------------|-3~------3~----|
Bb|-3~------------|-3~------------|-3~------------|-3~------3~----|
Gb|-0~------------|-0~------------|-0~------------|-0~------2~----|
Db|-0~------------|-2~------------|-2~------------|-2~------0~----|
Ab|-2~------------|-3~------------|-2~------------|-3~------------|
Eb|-3~------------|---------------|-0~------------|---------------|

(Guitar 1)
(Acoustic)
Eb|-3---3---3---3-|-3---3---3---3-|-3---3---3---3-|-3---3---3---3-|-3---3---3---3-|-3-3-3~-------|
Bb|-3---3---3---3-|-3---3---3---3-|-3---3---3---3-|-3---3---3---3-|-3---3---3---3-|-3-3-3~-------|
Gb|-0---0---0---0-|-0---0---0---0-|-0---0---0---0-|-0---0---2---2-|-0---0---0---0-|-2-2-2~-------|
Db|-0---0---0---0-|-2---2---2---2-|-2---2---2---2-|-2---2---0---0-|-2---2---2---2-|-0-0-0~-------|
Ab|-2---2---2---2-|-3-3-3-3-3-3-3-|-2---2---2---2-|-3-3-3---------|-2---2---2---2-|--------------|
Eb|-3-3-3-3-3-3-3-|---------------|-0-0-0-0-0-0-0-|---------------|-0-0-0-0-0-0-0-|--------------|
                                                                                         
(Guitar 2)
(Electric-clean)                                                                    
Eb|-3~------------|-3~------------|-3~------------|-3~------3~----|---------------|--------------|
Bb|-3~------------|-3~------------|-3~------------|-3~------3~----|-----2-----2~--|-----2-----2~-|
Gb|-0~------------|-0~------------|-0~------------|-0~------2~----|---0---0-------|---0---0------|
Db|-0~------------|-2~------------|-2~------------|-2~------0~----|-2-------2-----|-2-------2----|
Ab|-2~------------|-3~------------|-2~------------|-3~------------|---------------|--------------|
Eb|-3~------------|---------------|-0~------------|---------------|---------------|--------------|

[Verse 3]
(01:10-01:37)
(Guitar 1)
(Acoustic)
Eb|-3-3-3-3-|-3-3-3-3-|-3-3-3-3-|-3-3-3-3-|
Bb|-3-3-3-3-|-3-3-3-3-|-3-3-3-3-|-3-3-3-3-|            
Gb|-0-0-0-0-|-0-0-0-0-|-0-0-0-0-|-2-2-2-2-|            
Db|-0-0-0-0-|-2-2-2-2-|-2-2-2-2-|-2-2-0-0-|            
Ab|-2-2-2-2-|-2-2-2-2-|-3-3-3-3-|-0-0-----|            
Eb|-3-3-3-3-|-0-0-0-0-|---------|---------|            
                                                     (2x)
(Guitar 2)
(Electric-with slight distortion and flanger) 
Eb|-3~------|-3~------|-3~------|-3~--3~--|            
Bb|-3~------|-3~------|-3~------|-3~--3~--|            
Gb|-0~------|-0~------|-0~------|-2~--2~--|            
Db|-0~------|-2~------|-2~------|-2~--0~--|            
Ab|-2~------|-2~------|-3~------|-0~------|            
Eb|-3~------|-0~------|---------|---------|

[Chorus 2]
(01:38-02:05)
(Guitar 1)
(Acoustic)
Eb|-3-3-3-3------|-3-3-3-3------|-3-3-3-3------|-3-3-3-3------|
Bb|-3-3-3-3------|-3-3-3-3------|-3-3-3-3------|-3-3-3-3------|
Gb|-0-0-0-0------|-0-0-0-0------|-0-0-0-0------|-0-0-2-2------|
Db|-0-0-0-0------|-2-2-2-2------|-2-2-2-2------|-2-2-0-0------|
Ab|-2-2-2-2------|-3-3-3-3------|-2-2-2-2------|-3-3----------|
Eb|-3-3-3-3------|--------------|-0-0-0-0------|--------------|
                                                             
(Guitar 2)
(Electric-with slight distortion)                    
Eb|-3------------|-3------------|-3------------|-3------------|
Bb|-3---3-----3~-|-3---3-----3~-|-3---3-----3~-|-3---3-----3~-|
Gb|-0-----0------|-0-----0------|-0-----0------|-0-----0------|
Db|-0------------|-2------------|-2-2-----2----|-2------------|
Ab|-2------------|-3-3-----3----|-2------------|-3-3-----3----|
Eb|-3-3-----3----|--------------|-0------------|--------------|

(Guitar 1)
(Acoustic)
Eb|-3-3-3-3------|-3-3-3-3------|-3-3-3-3------|-3-3-3-3---------|
Bb|-3-3-3-3------|-3-3-3-3------|-3-3-3-3------|-3-3-3-3---------|
Gb|-0-0-0-0------|-0-0-0-0------|-0-0-0-0------|-0-0-2-2-(Pause!)|
Db|-0-0-0-0------|-2-2-2-2------|-2-2-2-2------|-2-2-0-0---------|
Ab|-2-2-2-2------|-3-3-3-3------|-2-2-2-2------|-3-3-------------|
Eb|-3-3-3-3------|--------------|-0-0-0-0------|-----------------|
                                                                
(Guitar 2)
(Electric-with slight distortion)                       
Eb|-3------------|-3------------|-3------------|-3---------------|
Bb|-3---3-----3~-|-3---3-----3~-|-3---3-----3~-|-3---3-----3~----|
Gb|-0-----0------|-0-----0------|-0-----0------|-0-----0---------|
Db|-0------------|-2------------|-2-2-----2----|-2---------------|
Ab|-2------------|-3-3-----3----|-2------------|-3-3-----3-------|
Eb|-3-3-----3----|--------------|-0------------|-----------------|

[Bridge]
(02:06-02:32)
(Guitar 1)
(Acoustic)
Eb|-0-0-0-0-|---------|-3-3-3-3-|-2-2-2-2--|
Bb|-0-0-0-0-|-2-2-2-2-|-3-3-3-3-|-3-3-3-3--|
Gb|-0-0-0-0-|-2-2-2-2-|-0-0-0-0-|-2-2-2-2--|
Db|-2-2-2-2-|-2-2-2-2-|-2-2-2-2-|-0-0-0-0--|
Ab|-2-2-2-2-|-0-0-0-0-|-3-3-3-3-|----------|
Eb|-0-0-0-0-|---------|---------|----------|
                                          
(Guitar 2)
(Electric-with slight distortion) 
Eb|-0~------|---------|-3~------|-2~-------|
Bb|-0~------|-2~------|-3~------|-3~-------|
Gb|-0~------|-2~------|-0~------|-2~-------|
Db|-2~------|-2~------|-2~------|-0~-------|
Ab|-2~------|-0~------|-3~------|----------|
Eb|-0~------|---------|---------|----------|

(Guitar 1)
(Acoustic)
Eb|-0-0-0-0-|---------|-3-3-3-3-|-2~---------|
Bb|-0-0-0-0-|-2-2-2-2-|-3-3-3-3-|-3~---------|
Gb|-0-0-0-0-|-2-2-2-2-|-0-0-0-0-|-2~---------|
Db|-2-2-2-2-|-2-2-2-2-|-2-2-2-2-|-0~---------|
Ab|-2-2-2-2-|-0-0-0-0-|-3-3-3-3-|------------|
Eb|-0-0-0-0-|---------|---------|------------|
                                            
(Guitar 2)
(Electric-with slight distortion)   
Eb|-0~------|---------|-3~------|-2~----2~---|
Bb|-0~------|-2~------|-3~------|-3~----3~---|
Gb|-0~------|-2~------|-0~------|-2~----2~---|
Db|-2~------|-2~------|-2~------|-0~--0------|
Ab|-2~------|-0~------|-3~------|------------|
Eb|-0~------|---------|---------|------------|

Then..(02:33-03:07)
(Guitar 1)
(Acoustic)
Eb|-3~-------------|-3~-------------|-3~-------------|-3~----3~-----|
Bb|-3~-------------|-3~-------------|-3~-------------|-3~----3~-----|
Gb|-0~-------------|-0~-------------|-0~-------------|-0~----2~-----|
Db|-0~-------------|-2~-------------|-2~-------------|-2~----0~-----|
Ab|-2~-------------|-3~-------------|-2~-------------|-3~-----------|
Eb|-3~-------------|----------------|-0~-------------|--------------|
                                                                   
(Guitar 2)
(Electric-clean)                                           
Eb|----------------|----------------|----------------|--------------|
Bb|-----3-----3~---|-----3-----3~---|-----3-----3~---|-----3-----3~-|
Gb|---0---0--------|---0---0--------|---0---0--------|---0---0------|
Db|----------------|--------------0-|-2-------2------|--------------|
Ab|--------------2-|-3-------3------|--------------2-|-3-------3----|
Eb|-3-------3------|----------------|----------------|--------------|

(Guitar 1)
(Acoustic)
Eb|-3-3-3-3-|-3-3-3-3-|-3-3-3-3-|-3-3-3-3-|-3-3-3-3-|-3-3-3-3--3-|
Bb|-3-3-3-3-|-3-3-3-3-|-3-3-3-3-|-3-3-3-3-|-3-3-3-3-|-3-3-3-3--3-|
Gb|-0-0-0-0-|-0-0-0-0-|-0-0-0-0-|-0-0-2-2-|-0-0-0-0-|-0-0-0-0--0-|
Db|-0-0-0-0-|-2-2-2-2-|-2-2-2-2-|-2-2-0-0-|-0-0-0-0-|-0-0-0-0--0-|
Ab|-2-2-2-2-|-3-3-3-3-|-2-2-2-2-|-3-3-----|-2-2-2-2-|-2-2-2-2--2-|
Eb|-3-3-3-3-|---------|-0-0-0-0-|---------|-3-3-3-3-|-3-3-3-3--3-|
                                                                
(Guitar 2)
(Electric-clean)                                        
Eb|-3~------|-3~------|-3~------|-3~--3~--|-3~------|-3-3-3-3--3-|
Bb|-3~------|-3~------|-3~------|-3~--3~--|-3~------|-3-3-3-3--3-|
Gb|-0~------|-0~------|-0~------|-0~--2~--|-0~------|-0-0-0-0--0-|
Db|-0~------|-2~------|-2~------|-2~--0~--|-0~------|-0-0-0-0--0-|
Ab|-2~------|-3~------|-2~------|-3~------|-2~------|------------|
Eb|-3~------|---------|-0~------|---------|-3~------|------------|

[Chorus 2]
(03:08-03:38)
(Guitar 1)
(Acoustic)
Eb|-3-3-3-3------|-3-3-3-3------|-3-3-3-3------|-3-3-3-3------|
Bb|-3-3-3-3------|-3-3-3-3------|-3-3-3-3------|-3-3-3-3------|
Gb|-0-0-0-0------|-0-0-0-0------|-0-0-0-0------|-0-0-2-2------|
Db|-0-0-0-0------|-2-2-2-2------|-2-2-2-2------|-2-2-0-0------|
Ab|-2-2-2-2------|-3-3-3-3------|-2-2-2-2------|-3-3----------|
Eb|-3-3-3-3------|--------------|-0-0-0-0------|--------------|
                                                             
(Guitar 2)
(Electric-with slight distortion)                    
Eb|-3------------|-3------------|-3------------|-3------------|
Bb|-3---3-----3~-|-3---3-----3~-|-3---3-----3~-|-3---3-----3~-|
Gb|-0-----0------|-0-----0------|-0-----0------|-0-----0------|
Db|-0------------|-2------------|-2-2-----2----|-2------------|
Ab|-2------------|-3-3-----3----|-2------------|-3-3-----3----|
Eb|-3-3-----3----|--------------|-0------------|--------------|

(Guitar 1)
(Acoustic)
Eb|-3-3-3-3------|-3-3-3-3------|-3-3-3-3------|-3-3-3-3---------|
Bb|-3-3-3-3------|-3-3-3-3------|-3-3-3-3------|-3-3-3-3---------|
Gb|-0-0-0-0------|-0-0-0-0------|-0-0-0-0------|-0-0-2-2-(Pause!)|
Db|-0-0-0-0------|-2-2-2-2------|-2-2-2-2------|-2-2-0-0---------|
Ab|-2-2-2-2------|-3-3-3-3------|-2-2-2-2------|-3-3-------------|
Eb|-3-3-3-3------|--------------|-0-0-0-0------|-----------------|
                                                                
(Guitar 2)
(Electric-with slight distortion)                       
Eb|-3------------|-3------------|-3------------|-3---------------|
Bb|-3---3-----3~-|-3---3-----3~-|-3---3-----3~-|-3---3-----3~----|
Gb|-0-----0------|-0-----0------|-0-----0------|-0-----0---------|
Db|-0------------|-2------------|-2-2-----2----|-2---------------|
Ab|-2------------|-3-3-----3----|-2------------|-3-3-----3-------|
Eb|-3-3-----3----|--------------|-0------------|-----------------|

[Outro]
(03:39-03:47)
(Guitar 1)
(Acoustic)
Eb|-3~-----|-0~-----|---19~-|
Bb|-3~-----|-0~-----|---20~-|
Gb|-0~-----|-0~-----|---21~-|
Db|-0~-----|-2~-----|-------|
Ab|-2~-----|-2~-----|-------|
Eb|-3~-----|-0~-----|-------|
                           
(Guitar 2)
(Electric-clean)   
Eb|-3~----------------------|
Bb|-3~----------------------|
Gb|-0~----------------------|
Db|-0~----------------------|
Ab|-2~----------------------|
Eb|-3~----------------------|


************************************

| b  Bend
| ~  Vibrato
| /  Slide up

************************************

            
            
Suggest correction
Creating personal tab
Creating personal tab
You can edit any tab online and save it as your Personal.

You can edit, replace or remove any tab part or add personal notes – all changes will be seen only by you.

Personal tabs can be accessed anytime from any device, even offline.
Learn more »
comments
print report bad tab
5 comments total. Showing first comments.
0 reply
mr_lee 115 Jun 29, 2008 01:35 AM

WoW. Nice TAbs

Thanks!

0 reply
shaq147 161 Sep 05, 2008 04:49 AM

Great tab. Just one mistake here :). U can make the correction urself. Change the 2 to a 3 on the last part. I cant be damned :D

Eb-3~------------|-3~------------|-3~------------|-3~------3~----|---------------|--------------|
Bb-3~------------|-3~------------|-3~------------|-3~------3~----|-----2-----2~--|-----2-----2~-|
Gb-0~------------|-0~------------|-0~------------|-0~------2~----|---0---0-------|---0---0------|
Db-0~------------|-2~------------|-2~------------|-2~------0~----|-2-------2-----|-2-------2----|
Ab-2~------------|-3~------------|-2~------------|-3~------------|---------------|--------------|
Eb-3~------------|---------------|-0~------------|---------------|---------------|--------------|

0 reply
matt6v34 10 Jan 09, 2009 06:09 PM

the second chord isn't quite right...it should be

x

guest
You may want to rate the tab now too:
select rating
Wanna post a correction for this tab? Suggest correction