Oops, an error
Loading. Please wait.

Church Music - Dance Tab

768 views 3 this week
no commentswrite comment
1 2 3 4 5
2 more votes to show rating
add to favorites
launch autoscroll
font size
0
reset
how to read this tab
guitar tuner
Autoscroll
slow
fast
+/-
esc
set tempo
stop
Help us to improve Ultimate-Guitar.com Take our survey!
×
Author
Difficulty
Capo
intermediate
1st fret
Church Music - Dance (!)
David Crowder*Band

CAPO 1
All tab is relative to capo.

Solo starts at 1:19
e|-----------5--------------------------------------|
B|-------------5-8---5-7----------------------------|
G|--7^---7~--------7-----8p7p5-7-5---5--------------|
D|---------------------------------7---7p5---5------|
A|-----------------------------------------7--------|
E|--------------------------------------------------|

e|------------------------------------------------------------------------|
B|------------------------------------------------------------8---10~-----|
G|--------------------------------------5-7---5-7p5---5-7h8h9---9---------|
D|--------------3-----------5-7---5-6-7-----7-------7---------------------|
A|--7p6-5\3---3---0-3/5-6-7-----7-----------------------------------------|
E|----------5-------------------------------------------------------------|

Solo ends at 1:30
Suggest correction
Give kudos to tab author, rate the tab!
1 2 3 4 5
comments
print report bad tab
guest
You may want to rate the tab now too:
select rating
Wanna post a correction for this tab? Suggest correction