Oops, an error
Loading. Please wait.

Come Thou Fount Tab

version 2
version 2

Intro

3,510 views 3 this week
no commentswrite comment
1 2 3 4 5
2 more votes to show rating
add to favorites
launch autoscroll
font size
0
reset
how to read this tab
guitar tuner
Autoscroll
slow
fast
+/-
esc
set tempo
stop
Help us to improve Ultimate-Guitar.com Take our survey!
×
Author
Difficulty
novice
----------------------------------------------------------------------------
                          Come thou fount- David Crowder
----------------------------------------------------------------------------
Tabbed by: Andrew
Email: andrew.brademeyer@gmail.com email me for questions

Tuning: Standard

Here is my go at the intro to come thou fount by David Crowder. Add the extra 0 on the 
top two strings every once and a while to get a more strumming sound like in the album.

Guitar
e|-------------0-------0---------0-----------------------------------------|
B|-------------0-------0---------0-----------------------------------------|
G|-----------------4---------4-6-4-----------------------------------------|
D|---4h6-4-2-----6---4-4---6-------6-4-2-----------------------------------|
A|-------------------------------------------------------------------------|
E|-------------------------------------------------------------------------| (x2)

Violin
e|-------------------------------------------------------------------------|
B|-------------------------------------------------------------------------|
G|---4-6-8-9-8-6-4-4h6p4-----4-689-8-6-4/9---------------------------------|
D|-----------------------6-------------------------------------------------|
A|-------------------------------------------------------------------------|
E|-------------------------------------------------------------------------|

e|-------------------------------------------------------------------------|
B|------------------12------------12-14-12---------------------------------|
G|---13-11-9-9---13----11-11---13----------13-11-9-------------------------|
D|-------------------------------------------------------------------------|
A|-------------------------------------------------------------------------|
E|-------------------------------------------------------------------------|

There you go. Have fun.
Suggest correction
Give kudos to tab author, rate the tab!
1 2 3 4 5
comments
print report bad tab
guest
You may want to rate the tab now too:
select rating
Wanna post a correction for this tab? Suggest correction