Oops, an error
Loading. Please wait.

Foreverandever Etc Tab

version 2
version 2

Whole song

9,203 views 1 this week
1 commentread comment
1 2 3 4 5
excellent!
x 2
add to favorites
launch autoscroll
font size
0
reset
how to read this tab
guitar tuner
Tab Pro tools
  • play this tab
  • loop segment
  • change instrument
  • show fretboard
  • metronome
Autoscroll
slow
fast
+/-
esc
set tempo
stop
Contributor
Artist: David Crowder Band
Song: Foreverandever Etc.
Album: A Collision

Jack Intro:

Left (capo 4):

----------------------------------|
-------1--------------------------|
--0----0--------------------------|
--0----x--------------------------|
--x----3--------------------------|
--3-------------------------------|

Right (capo 4):

-----------------------------------   -------------------|
------------------0-0-0-0-0-0-0-0--   --0-0-0-0-0---0----|
--4-0-4-0-4-0-4-0-4^5-5-5-5-5-5^7--   --4^5-5-5-5^4-2^0--|
--0-0------------------------------   -------------------|
-----------------------------------   -------------------|
-----------------------------------   -------------------|

======================================================================

Jack Verse:

---------------------------------|
---------------------------------|
---------------------------------|
---------------------------------|
------2-2-----2-2-----2-2----2---|
--3-3-----3-3-----3-3-----3-3----|

Solley Verse:

Left (capo 4):

-------------------------|
-------------------------|
-------------------------|
-------------------------|
-------------------------|
--3-3--3-3--3-3-3-3-3-3--|

Right (capo 4):

--3--3--3----------------|
--3--3--3----------------|
--0--0--0----------------|
-------------------------|
-------------------------|
-------------------------|

==========================================================================

Jack Pre-Chorus:

Left (no capo):

-2--0--2--0--0--2--0------------------|
-2--0--2--0--0--2--0------------------|
-3--1--3--4--6--3--1--4--6--8--11--8--|
----------6--8--------6--8--9--13—-9--|
--------------------------------------|
--------------------------------------|

Right (capo 4):

--2--3--2---------   --3--3--3--3---|
--3--3--3--3--3---   --3--3--3--3---|
--2--0--2--0--2---   --0--0--0--0---|
--0--x--0--2--0---   --0--0--0--0---|
-----3-----2--0---   --x--x--x--x---|
-----------0--2---   --3--3--3--3---|

Solley Pre-Chorus (no capo):

-------------------------------------|
-------------------------------------|
-------------------------------------|
-------------------------------------|
--9--7--9--11--13--9--11--9--12--14--|
-------------------------------------|

=========================================================================

Jack Chorus:

Left (no capo):

--0--0--0--0--0-0--0--0--0--0-0--0--0--0---|
--0--0--0--0--0-0--0--0--0--0-0--0--0--0---|
--8--8--8--8--8^9--9--9--9--9^8--8--8--8---|
--9--9--9--9--9-9--9--9--9--9-9--9--9--9---|
--x--x--x--x--x-x--x--x--x--x-x--x--x--x---|
--7--7--7--7--7-7--7--7--7--7-7--7--7--7---|

Right (no capo):

------------------------|
------------------------|
--4--6-----9--4-----9---|
--4--6--6--9--4--4--9---|
--2--4--6--7--2--4--7---|
--------4--------2--0---|

Solley Chorus (no capo):

------------------------------|
------------------------------|
------------------------------|
--13-11-13-14-16-13-11-14-13--|
------------------------------|
------------------------------|
comments
We did not receive enough feedback on this tab! Please rate:
print report bad tab
1 2 3 4 5
1 comment total.
0 reply
Kirby123 wrote on February 28 2008, 09:36 pm

only capo 4 if you have Eb tuning... you cheated...

I want to post or [tab]
guest
You may want to rate the tab now too:
select rating
Please do not post tabs as comments. Select "correction" instead!