Oops, an error
Loading. Please wait.

Heaven Came Down Tab

8,940 views 3 this week
no commentswrite comment
1 2 3 4 5
excellent!
x 3
add to favorites
launch autoscroll
font size
0
reset
how to read this tab
guitar tuner
Tab Pro tools
  • play this tab
  • loop segment
  • change instrument
  • show fretboard
  • metronome
×
Best way to learn
"Heaven Came Down"
Autoscroll
slow
fast
+/-
esc
set tempo
stop
-------------------------------------------------------------------------------
                   HEAVEN CAME DOWN - David Crowder Band
-------------------------------------------------------------------------------

By:  Gary(incuthrice07@gawab.com)

TUNE DOWN 1/2 STEP!!!

/ \ - slide
x
x   - scratching
x
~   - let ring out
2x
2x  - mute after strumming
0x

Intro:  (4x)
Eb|----------------------------------------|
Bb|------------8---------7-----------------|
Gb|----4-5/7-----x-x-x-x---x-x-------------|
Db|--5-------5---x-x-x-x---x-x---7\5---5---|
Ab|7-------------x-x-x-x---x-x-7-----5-----|
Eb|----------------------------------------|

Verse:  "Heaven came down..."
Eb|--------------------------------------------------------------------------|
Bb|-------------------------------8-7-----------------------------8-7--------|
Gb|-----------------------4-5/7-------9-7/9---------------4-5/7-------9-7/9--|
Db|--2~-----------------5-------5-----------9-7---------5-------5-----------9|
Ab|--2~---------------7-------------------------9-10--7----------------------|
Eb|--0~----------------------------------------------------------------------|

Verse Cont'd:
Eb|--------------------------------------------------------------------------|
Bb|--------------------------8-7-----------------------------8-7-------------|
Gb|------------------4-5/7-------9-7/9---------------4-5/7-------9-7/9-------|
Db|7------2~-------5-------5-----------9-7---------5-------5-----------9--9--|
Ab|--9-10-2~-----7-------------------------9-10--7---------------------------|
Eb|-------0~-----------------------------------------------------------------|

Verse Cont'd:
Eb|--------------------------------------------------------------------------|
Bb|-----------------------------------------------------------8-7------------|
Gb|---------------------------------------------------4-5/7-------9-7/9------|
Db|9-9--9-7--7-7--7-10--10-10--10-9--9-9--9-2~------5-------5-----------9-7--|
Ab|-----------------------------------------2~----7--------------------------|
Eb|-----------------------------------------0~-------------------------------|

Verse Cont'd:
Eb|--------------------------------------------------------------------------|
Bb|------------------8-7-----------------------------------------------------|
Gb|----------4-5/7-------9-7/9-----------------------------------------------|
Db|--------5-------5-----------9-7----------------5-4------------------------|
Ab|9-10--7-------------------------9-10-------7-5-----5----------------------|
Eb|---------------------------------------7-5--------------------------------|

Chorus:  "Oh what a wonderful..."  (4x)
Eb|-3>--------3>---3>------|
Bb|-3>---3>---3>---3>------|
Gb|-0>---2>---0>---0>------|
Db|-0>---0>---2>---2>------|
Ab|-2>---x>---2>---3>------|
Eb|-3>---2>---0>-----------|

2nd Verse:  "Heaven came down..."
Eb|--------------------------------------------------------------------------|
Bb|--------------------8-7----------------------------8-7--------------------|
Gb|------------4-5/7-------9-7/9--------------4-5/7-------9-7/9--------------|
Db|-2~-------5-------5-----------9-2~-------5-------5-----------9--9--9-9--9-|
Ab|-2~-----7-----------------------2~-----7----------------------------------|
Eb|-0~-----------------------------0~----------------------------------------|

2nd Verse Cont'd:
Eb|--------------------------------------------------------------------------|
Bb|-----------------------------------------------------8-7------------------|
Gb|---------------------------------------------4-5/7-------9-7/9------------|
Db|7--7-7--7-10--10-10--10-9--9-9--9-2~-------5-------5-----------9-7--------|
Ab|----------------------------------2~-----7-------------------------9-10---|
Eb|----------------------------------0~--------------------------------------|

2nd Verse Cont'd:
Eb|---------------------------------|
Bb|------------8-7------------------|
Gb|----4-5/7-------9-7/9------------|
Db|--5-------5-----------9-7--------|
Ab|7-------------------------9-10---|
Eb|---------------------------------|

Repeat Chorus

Repeat 2nd Verse:  (But add this to end)
Eb|------------------|
Bb|------------------|
Gb|------------------|
Db|---------5-4------|
Ab|-----7-5-----5----|
Eb|-7-5--------------|

Repeat Chorus

End of Chorus:  (The verse riff is being played here also but I can't follow
Eb|-----------------------| it...the bass covers it too much for me to figure
Bb|-----------------------| it out...sorry)
Gb|-----------------------|
Db|-2~-------2~-----2~----|
Ab|-2~-------2~-----2~----|
Eb|-0~-------0~-----0~----|
                    .

Ending:  (fades out)
Eb|---------8---8-7---7-------------8---8-7---7-------------8---8-7---7------|
Bb|-8---8-----8-----8---8---8---8-----8-----8---8---8---8-----8-----8---8----|
Gb|---9---9---------------9---9---9---------------9---9---9------------------|
Db|--------------------------------------------------------------------------|
Ab|--------------------------------------------------------------------------|
Eb|--------------------------------------------------------------------------|

GUITAR 2'S PARTS:
-----------------
Intro:  (Come in on 2nd time)
Eb|-----------------------------------------------------------------------8--|
Bb|-5-7-8-10-8---8---7----5-7-8-10-8-7-8-7---8---5-7-8-10-8-7-8-10-8-7-10----|
Gb|------------9-------------------------------------------------------------|
Db|--------------------------------------------------------------------------|
Ab|--------------------------------------------------------------------------|
Eb|--------------------------------------------------------------------------|

Intro Cont'd:
Eb|-7----------|
Bb|---8-10-----|
Gb|------------|
Db|------------|
Ab|------------|
Eb|------------|

Verse:  "Heaven came down..."
Eb|-0~-----------------------------------------------0~----------------------|
Bb|-0~-----------------------------------------------0~----------------------|
Gb|-0~--------0---0---------0-------------------------------------0---0------|
Db|-2~------2---2---2---4-----4---2~---------2~-----------------2---2---2---4|
Ab|-2~----3-----------5---5-----5-2~---------2~---------------3-----------5--|
Eb|-0~----------------------------0~---------0~------------------------------|

Verse Cont'd:
Eb|--------------------------------------------------------------------------|
Bb|--------------------------3---------3---------3---------3-----------------|
Gb|--0---------------------0---0-----2---2-----0---0-----0---0--------------0|
Db|----4---2~------2~------------0---------0---------2---------0-2~-------0--|
Ab|5-----5-2~------2~----------------------------------3---------2~-----3----|
Eb|--------0~------0~----3---------2---------0-------------------0~----------|

Verse Cont'd:
Eb|---------------------------------|
Bb|---------------------------------|
Gb|--0---------0--------------------|
Db|0---0---4-----4---2~------2~-----|
Ab|------5---5-----5-2~------2~-----|
Eb|------------------0~------0~-----|

Chorus:  "Oh what a wonderful..."  (2x)
Eb|--------------------------------------------------------------------------|
Bb|-8---8---8---7---7---7---5---5---5---7---7---7---8---8---8---10---10------|
Gb|---7---7---7---7---7---7---7---7---7---7---7---7---7---7---7----7----7----|
Db|--------------------------------------------------------------------------|
Ab|--------------------------------------------------------------------------|
Eb|--------------------------------------------------------------------------|

Chorus Cont'd:
Eb|--------------------------------|
Bb|10---8---8---8---8---8---7------|
Gb|---7---7---7---7---7---7---8----|
Db|--------------------------------|
Ab|--------------------------------|
Eb|--------------------------------|

2nd Verse:  "Heaven came down..."
Eb|--------------------------------------------------------------------------|
Bb|--------------------------------------------------------------------------|
Gb|----------0---0---------0---------------------0---0---------0-------------|
Db|2~------2---2---2---4-----4---2~-----2~-----2---2---2---4-----4---2~------|
Ab|2~----3-----------5---5-----5-2~-----2~---3-----------5---5-----5-2~------|
Eb|0~----------------------------0~-----0~---------------------------0~------|

2nd Verse Cont'd:
Eb|--------------------------------------------------------------------------|
Bb|----3---------3---------3---------3---------------------------------------|
Gb|--0---0-----2---2-----0---0-----0---0-------------0---0---------0---------|
Db|--------0---------0---------2---------0-2~------2---2---2---4-----4---2~--|
Ab|------------------------------3---------2~----3-----------5---5-----5-2~--|
Eb|3---------2---------0-------------------0~----------------------------0~--|

Eb|---0~----|
Bb|---0~----|
Gb|---0~----|
Db|---2~----|
Ab|---2~----|
Eb|---0~----|

Repeat Chorus

Repeat 2nd Verse

Chorus:  (4x)
Eb|10---10---10---------------10---10---10------------10---10---10-----------|
Bb|---8----8----8-7---7---7------8----8----8--7--8-------8----8----8-10---10-|
Gb|-----------------7---7---7-----------------------7-------------------7----|
Db|--------------------------------------------------------------------------|
Ab|--------------------------------------------------------------------------|
Eb|--------------------------------------------------------------------------|

Chorus Cont'd:
Eb|-------10---10---10----------------|
Bb|--10------8----8----8--7--8--------|
Gb|7----7-----------------------7-----|
Db|-----------------------------------|
Ab|-----------------------------------|
Eb|-----------------------------------|

End of Chorus:
Eb|--------------------------------------------------------------------------|
Bb|---8---10-8------8---10-8------8---8-----8---10-8------8---10-8-----------|
Gb|-9---9------9--9---9------9--9---9---9-9---9------9--9---9------9---------|
Db|------------------------------------------------------------------2x------|
Ab|------------------------------------------------------------------2x------|
Eb|------------------------------------------------------------------0x------|

Ending:  (fades out...all I hear are these really high notes)
Eb|17-15-17-15-------|
Bb|------------------|
Gb|------------------|
Db|------------------|
Ab|------------------|
Eb|------------------|

E-mail me any questions you have.
===============================================================================
comments
We did not receive enough feedback on this tab! Please rate:
print report bad tab
1 2 3 4 5
I want to post or [tab]
guest
You may want to rate the tab now too:
select rating
Please do not post tabs as comments. Select "correction" instead!