Oops, an error
Loading. Please wait.

How Great Tab

3,170 views 1 this week
1 commentread comment
1 2 3 4 5
please rate
add to favorites
launch autoscroll
font size
0
reset
how to read this tab
guitar tuner
Autoscroll
slow
fast
+/-
esc
set tempo
stop
Help us to improve Ultimate-Guitar.com Take our survey!
×
Author
Difficulty
novice
How Great - David Crowder Band
Illuminate

Tabbed by: DANNY CHI
Tuning: Standard

Intro (Guitar 1 - Acoustic)
e|-------------------------|
B|-------------------------|
G|1--4--1--5--1--4--1--6---|
D|-------------------------|
A|-------------------------|
E|1--3--1--4--1--3--1--6---|

Verse (Guitar 2 - Electric)
e|-----------------------------------------------------|
B|-----------------------------------------------------|
G|5h6-6-6-5-5-5-5-5-5--/6-6-6-5-5-5-5-5-6-6-6/8--------|
D|-----------------------------------------------------|
A|-----------------------------------------------------|
E|-----------------------------------------------------|

the acoustic part is right but the electric im not sure about, i just guessed but that's 
the main idea.. this song is not too hard... u just gotta play it right
Suggest correction new What's this?
You can suggest a correction to this tab. Community and Mods will review your correction and vote to approve or reject it.
comments
We did not receive enough feedback on this tab! Please rate:
print report bad tab
1 2 3 4 5
1 comment total.
0 reply
Grambo4 375 wrote on July 13 2015, 05:47 pm

Lack of accuracy. Tab incomplete. Clearly wrong. It's just clearly wrong. If you play what's written it doesn't sound like the song.

Try it starting on D/F#

e |---------------------------
B|----------------------------
G|2--4--2--6---2--4--2--7
D|---------------------------
A|----------------------------
E|2--3--2--5---2--3--2--7

guest
You may want to rate the tab now too:
select rating
Please do not post tabs as comments. Select "correction" instead!