Oops, an error
Loading. Please wait.

How He Loves Us Bass Tab

version 1
version 1

Whole song

Interactive

4,914 views 30 this week
no commentswrite comment
1 2 3 4 5
please rate
add to favorites
launch autoscroll
font size
0
reset
guitar tuner
Tab Pro tools
  • play this tab
  • loop segment
  • change instrument
  • show fretboard
  • metronome
×
Best way to learn
"How He Loves Us"
Autoscroll
slow
fast
+/-
esc
set tempo
stop
Contributor
Difficulty
intermediate
I only see one bass tab for this song is could work but i think it really
goes more like this. {Note} this song is in order with the recorded song.

Tabbed by Brandon Bushnell

Tuning (EADG}

  
  C   A   G    F   FhG  C   G   C   F/G    A   E  A   G   D  G
G|---------------------------------------------------------------------|
D|--------------------------------10-----------------------------------|
A|-----12~--10~--8~--8h10-----10------8/10---12~---12--10~----10-------|
E|--8~--------------------8~--------------------12---------10----------|

   

  F   C/F F  GhA   D  G  C  G  C  DhE  G  E  A   A/F  F
G|-----------------------------------------------------------|
D|-----------------------5----------------5------------------|
A|---8----------------5-----3-----3--5h7-----7---------------|
E|------8\1--1--3h5------------3----------------5---5\1--1---|



     /G  C  G   C  /DhE   G  DhE   A   E   A  \G  G  D  G  F  ChD C  G  F
G|-------------------------------------------------------------------------|
D|------------------------5-----------------------------5--3---------------|
A|-------3------3--/5h7------5h7---------------------5--------3h5-3--------|
E|---/3-----3----------------------5---0---5--\3--3------------------3--1--|



    /G  D  G  C  G  C    /DhE  D  A  E  A  \G  D  G  G  G  F
G|------------------------------------------------------------|
D|---------5--------------------------------------5--5--------|
A|------5-----3-----3----/5h7--5---------------5--------------|
E|--/3-----------3----------------5--0--5--\3-----------3--1--|



    C  F D  C    G   F  /  F  \C   G  C   /DhE G  E  A  E   A  GhA D  A  G
G|-------------------------------------------------------------------------|
D|-----3---------------------------------------5---------------------------|
A|--3----5--3-----------/888---\3-----3---/5h7----7----------------5-------|
E|---------------3---1-------------3----------------5---0---5--3h5----5--3-|



    D  G  DhE  G  E   F  ChD  D  G   F   GhA C  D  C G  C 
G|---------------------------------------------------------|
D|-----5-------5------3------------------------------------|
A|--5-----5h7-----7------3h5--5--------------3--5--3----3--|
E|-------------------------------3---1---3h5---------3-----|



    /DhE  G  DhE  A  E  A  E  D  A  G  D  G  E  G  G   F
G|---------------------------------------------------------|
D|--------5-------------------------------5-----5----------|
A|--/5h7-----5h7-----------7--5--------5-----7-------------|
E|----------------5--0--5--------5--3--------------3---1---|



    ChD  F  C  F  G  A  D  C  A  D  G   GhA  C  G   A  E  A
G|------------------------------------------------------------|
D|-------3----------------------------------------------------|
A|--3h5-----3-----------5--3-----5-----------3----------------|
E|-------------1--3--5--------5-----3---3h5-----3---5--0--5---|


    DhE  A  G  E  D A  G  D  G   C  F D  C  G  F ChD  F  D C 
G|-----------------------------------------------------------|
D|-------7--5-----------------5-----3-----------------3------|
A|--5h7--------7--5--------5-----3----5--3-------3h5-----5-3-|
E|------------------5---3-------------------3--1-------------|



    A    G   /   G   F  FhG   C   G    F  ChD  G   F\C  G  C
G|------------------------------------------------------------|
D|----------------------------10------------------------------|
A|---------------10--8--8h10------10---8-------10--8\3-----3--|
E|--5----3----/---------------------------8h10----------3-----|



    /DhE  G  DhE  A  E  A  GhA   D  A  G  D  G  D  G  D  F
G|----------------------------------------------------------|
D|--------5----------------------------------5-----5--------|
A|--/5h7-----5h7-----------------5--------5-----5-----5-----|
E|----------------5--0--5--3h5------5--3-----------------1--|



    ChD  F  C  F   FhG  F  D  C  G  C  /DhE  G  E  A   E   A
G|-------------------------------------------------------------|
D|-------3---------3h5--3--------------------5-----------------|
A|--3h5-----3--------------5--3-----3--/5h7-----7--------------|
E|-------------1-----------------3-----------------5---0---5---|



    E  A  G  E  D A  G  DhE  G  E A#  ChD  F  C  F  ChD  G  D  F
G|--------------------------------3------------------------------|
D|-----7--5------------------5-------------3-------------5-----3-|
A|--7--------7--5-------5h7-----7-----3h5-----3-----3h5-----5----|
E|----------------5--3---------------------------1---------------|


Thats it have fun.


comments
We did not receive enough feedback on this tab! Please rate:
print report bad tab
1 2 3 4 5
I want to post or [tab]
guest
You may want to rate the tab now too:
select rating
Please do not post tabs as comments. Select "correction" instead!