Oops, an error
Loading. Please wait.

How He Loves Tab

version 4
version 4

Whole song

Interactive

184 views 1 this week
no commentswrite comment
1 2 3 4 5
2 more votes to show rating
add to favorites
launch autoscroll
font size
0
reset
how to read this tab
guitar tuner
Autoscroll
slow
fast
+/-
esc
set tempo
stop
Author
Difficulty
novice
About this tab version
My Brother taught me it by ear. Was this info helpful? Yes No
e|-12-11------12-11-------12-11-------|
b|-------9-12-------9-12--------9-12--|
g|------------------------------------|            Continues through the entire song
d|------------------------------------|
a|------------------------------------|
E|------------------------------------|

e|-12-11------12-11-------12-11------|
b|-------9-12-------9-12--------9-12-|
g|-----------------------------------|
d|-----------------------------------|
a|-----------------------------------|
E|-----------------------------------|

e|-12-11------12-11-------12-11------|
b|-------9-12-------9-12--------9-12-|
g|-----------------------------------|
d|-----------------------------------|
a|-----------------------------------|
E|-----------------------------------|

e|-12-11------12-11-------12-11------|
b|-------9-12-------9-12--------9-12-|
g|-----------------------------------|
d|-----------------------------------|
a|-----------------------------------|
E|-----------------------------------|
Suggest correction
Give kudos to tab author, rate the tab!
1 2 3 4 5
comments
print report bad tab
guest
You may want to rate the tab now too:
select rating
Wanna post a correction for this tab? Suggest correction