Oops, an error
Loading. Please wait.

Like A Lion bass

version 1
version 1

Whole song

Interactive

3,018 views 1 this week
no commentswrite comment
1 2 3 4 5
3 more votes to show rating
add to favorites
×
Save as Personal and add changes to this tab that will be seen only by you. Learn more ›
×
You can save this tab as Personal to edit and correct it or add notes. All changes will be seen only by you. Learn more »
launch autoscroll
font size
0
reset
guitar tuner
edit
Autoscroll
slow
fast
+/-
esc
set tempo
stop
Author
Difficulty
ike a Lion - David Crowder Band

Intro:

G||----------------|----------------|----------------|----------------|
D||----------------|----------------|9-9-9-9-9-9-9-9-|9===9-9-9-9-9---|  x 6
A||----------------|----------------|----------------|----------------|
E||----------------|----------------|----------------|----------------|


Hook A:

G||----------------|----------------|----------------|----------------|
D||----------------|----------------|----------------|----------------|  x 2
A||----------------|----------------|2--22-2--22-2---|2--22-2--22-2---|
E||4--44-4--44-4---|2--22-2--22-2---|----------------|----------------|
>>slide from D2 up to D6 on 2nd pass going into V1


Verse 1 (1/4's):

G||---|---|---|---|---|---|---|---|
D||-6-|-4/|-9-|-9-|-E-|-9-|---|---|  x 2
A||---|---|---|---|---|---|-7-|-7-|
E||---|---|---|---|---|---|---|---|


Pre-Chorus (same pattern as Hook A):

G||---|---|---|---|---|---|---|---|
D||---|---|---|---|---|---|---|---|
A||-9-|-9-|-E-|-E-|-9-|-9-|-7-|-7-|
E||---|---|---|---|---|---|---|---|


Chorus (Hook A pattern from 3rd measure on):
                                            |< chorus riff >| 
G||----------------|----------------|---|---|---|---|---|---|
D||.---------------|----------------|---|---|---|---|---|---|
A||9---------------|--------------9-|-E-|-E-|-9-|-9-|-E-|-E-|
E||----------------|----------------|---|---|---|---|---|---|


Hook B (same as Hook A but one octave higher):

G||---|---|---|---|
D||---|---|-9-|-9-|  x 2
A||-E-|-9-|---|---|
E||---|---|---|---|
>>slide down to D6 on 2nd pass going into V2


Verse 2 = same as V1

Pre-Chorus = same

Chorus = same + chorus riff x2


Solo (same pattern as Hook A):

G||---|---|---|---|---|---|---|---|
D||-9-|-9-|-8-|-8-|---|---|---|---|
A||---|---|---|---|-E-|-E-|-7-|-7-|
E||---|---|---|---|---|---|---|---|


Bridge (1x: whole notes; 2x: 1/4's; 3x: 1/8's; 4x: ad-lib)

G||---|---|---|---|---|---|---|---|
D||-9-|-9-|-8-|-8-|---|---|-E-|-E-|  x 5
A||---|---|---|---|-E-|-E-|---|---|
E||---|---|---|---|---|---|---|---|


Chorus = same + chorus riff x2
>>slide from E9 down to E4 on last measure going into Tag


Tag (same pattern as Hook A):

G||---|---|---|---|       |---|---|----------------|----------------|
D||---|---|---|---|  x 3  |---|---|----------------|----------------|
A||---|---|-2-|-2-|       |---|---|2===============|================|
E||-4-|-2-|---|---|       |-4-|-2-|----------------|----------------|


Notes:
for extended measures, each dash = 1/16th
for shortened measures, play the pattern indicated in the section head
= hold the note
. staccato
/ slide up
E = 11th fret
Suggest correction
Creating personal tab
Creating personal tab
You can edit any tab online and save it as your Personal.

You can edit, replace or remove any tab part or add personal notes – all changes will be seen only by you.

Personal tabs can be accessed anytime from any device, even offline.
Learn more »
Give kudos to tab author, rate the tab!
1 2 3 4 5
comments
print report bad tab
guest
You may want to rate the tab now too:
select rating
Wanna post a correction for this tab? Suggest correction