Oops, an error
Loading. Please wait.

Open Skies tab

21,030 views 12 this week
1 commentread comment
1 2 3 4 5
x 6
add to favorites
×
Save as Personal and add changes to this tab that will be seen only by you. Learn more ›
×
You can save this tab as Personal to edit and correct it or add notes. All changes will be seen only by you. Learn more »
launch autoscroll
font size
0
reset
how to read this tab
guitar tuner
edit
Autoscroll
slow
fast
+/-
esc
set tempo
stop
David Crowder - Open Skies

Intro

e------------------0----------------------|
B-----8----7------7--------5---3----------|
G-----0----0----0----------0---0----------|
D----9-----7---7-7--------5---------------|
A-0h7------5--5--------0h3-----3----------|
E-----------------------------------------|

e-----------------------------------------|
B-----8----7---------------5------2p0-----|
G-----0----0---------------0---------4p0--|
D----9-----7--------------5------5--------|
A-0h7------5-----------0h3----0\5---------|
E-----------------------------------------|

Verse

e-----------------------------------------|
B-----8----7---------------5---3----------|
G-----0----0---------------0---0----------|
D----9-----7--------------5---------------|
A-0h7------5-----------0h3-----3----------|
E-----------------------------------------|

Pre-Chorus
G/B C2

Chorus / Refrain
G D C

            
            
Suggest correction
Creating personal tab
Creating personal tab
You can edit any tab online and save it as your Personal.

You can edit, replace or remove any tab part or add personal notes – all changes will be seen only by you.

Personal tabs can be accessed anytime from any device, even offline.
Learn more »
comments
print report bad tab
1 comment total.
0 reply
Dub step master 113 Dec 01, 2015 08:55 AM

good tab except for 2 things:
1: Tuning should be half step down.
2: The pull offs on the B and G string should be on the G and D sting. This is how I play it.
e--------------|
B--------------|
G-----0-2p0----|
D----------4p0-|
A-0/5----------|
E--------------|

guest
Wanna post a correction for this tab? Suggest correction