Oops, an error
Loading. Please wait.

Undignified tab

version 1
version 1

Whole song

Interactive

9,408 views 1 this week
no commentswrite comment
1 2 3 4 5
x 4
add to favorites
×
Save as Personal and add changes to this tab that will be seen only by you. Learn more ›
×
You can save this tab as Personal to edit and correct it or add notes. All changes will be seen only by you. Learn more »
launch autoscroll
font size
0
reset
how to read this tab
guitar tuner
edit
Autoscroll
slow
fast
+/-
esc
set tempo
stop
Author
Difficulty
Intro: 

   e|-------------------------------------------------|
   B|-------------------------------------------------|
   G|-9--------------------------------------9-----9--|
   D|-9-----------------------------------9-----9-----|
   A|-7-----------------------------------------------|
   E|-------------------------------------------------|
      E

Verse(x2):  
              
     I will dance and I will sing to be mad for my king
   e|---------------------------------------------------|
   B|---------------------------------------------------|
   G|-9-------------------------------------------------|
   D|-9-------------------------------------------------|
   A|-7-------------------------------------------------|
   E|---------------------------------------------------|
      E

     Nothing Lord is hindering the passion in my soul
   e|-------------------------------------------------|
   B|-------------------------------------------------|
   G|----------------------------------------9-----9--|
   D|-------------------------------------9-----9-----|
   A|-------------------------------------------------|
   E|-------------------------------------------------|


Instrumental: 

   E A G#m F#m

Chorus1:
   E    A      G#m        B                 E         A
   I'll become even more undignified than this
   G#m           B       
   Some say its foolishness
   E     A     G#m        B                E         A
   I'll become even more undignified than this
   G#m          B
   Leave my pride by my side

Intro

Verse(x2)

Chorus2 (x2):
   E    A      G#m        B                 E         A
   I'll become even more undignified than this
   G#m           B       
   Some say its foolishness
   E     A     G#m        B                E         A
   I'll become even more undignified than this
   G#m            B
   Leave my pride by my side

Bridge (x4)
   E                                                 
   La, la, la, la, la, la   hey!
   A                                                
   La, la, la, la, la, la

Solo Thingy
     (This is probably wrong but it's really hard to hear what's going on so I just play this)
   e|-0-7-0-5-0-4-0---------------------|
   B|---------------4-5-4-5-7-5-4-5-7-4-|
   G|-----------------------------------|
   D|-----------------------------------|
   A|-----------------------------------|
   E|-----------------------------------|

Verse
Chorus(x2)
Bridge(x4)

            
            
Suggest correction
Creating personal tab
Creating personal tab
You can edit any tab online and save it as your Personal.

You can edit, replace or remove any tab part or add personal notes – all changes will be seen only by you.

Personal tabs can be accessed anytime from any device, even offline.
Learn more »
comments
print report bad tab
guest
You may want to rate the tab now too:
select rating
Wanna post a correction for this tab? Suggest correction