Oops, an error
Loading. Please wait.

Make A Joyful Noise I Will Not Be Silent bass

1,500 views 1 this week
no commentswrite comment
1 2 3 4 5
x 3
add to favorites
×
Save as Personal and add changes to this tab that will be seen only by you. Learn more ›
×
You can save this tab as Personal to edit and correct it or add notes. All changes will be seen only by you. Learn more »
launch autoscroll
font size
0
reset
guitar tuner
edit
Autoscroll
slow
fast
+/-
esc
set tempo
stop
Author
Ive done a video lesson top this and the video is here

http://www.youtube.com/watch?v=eAEMaaXnZQY

This is how I play the bass line. Idk exactly how crowder's bassist does it but this is 
fun way to play the song and it fits. enjoy and please rate here and on youtube :)

Make a Joyful Noise
David Crowder
Lime Cd
Tab by: ibassforHim

Standard Tuning

Intro/Verse

G|-----------------------------------|
D|------------4-4h5p4----------------|
A|14s2*--2-2----------5*-5-5-7-7h9p7-|
E|-----------------------------------|

G|-------------------7---9-----7-----|
D|---------4-4h5p4----------7h9-9----|
A|2*--2-2----------5---7-------------|
E|-----------------------------------|

Chorus

G|----------------------------------------------------------------|
D|----------------------------------------------------------------|
A|3-3-3-3-3-3-3-3-2-2-2-2-2-2---2-3-3-3-3-3-3-3-3-2-2-2-2-3h5-3h5-|
E|----------------------------3-----------------------------------|

Grace and Peace,
Paul

            
            
Suggest correction
Creating personal tab
Creating personal tab
You can edit any tab online and save it as your Personal.

You can edit, replace or remove any tab part or add personal notes – all changes will be seen only by you.

Personal tabs can be accessed anytime from any device, even offline.
Learn more »
Give kudos to tab author, rate the tab!
1 2 3 4 5
comments
print report bad tab
guest
You may want to rate the tab now too:
select rating
Wanna post a correction for this tab? Suggest correction