Oops, an error
Loading. Please wait.

Busride Carsick Chords

version 2
version 2

Whole song

7 views 1 this week
no commentswrite comment
1 2 3 4 5
3 more votes to show rating
add to favorites
launch autoscroll
font size
0
reset
transpose
0
reset
display chords
guitar tuner
Autoscroll
slow
fast
+/-
esc
set tempo
stop
Help us to improve Ultimate-Guitar.com Take our survey!
×
Author
  [Chords]
Gm 355333
Cm 335553
Eb 668886
Bb 688766
A  577655
D  557775
G# 466544

e|--------------------------------------------------------------|
B|--------------------------------------------------------------|
G|--------------------------------------------------------------|
D|--------------------------------------------------------------| x2
A|---5-4-3---5-4-3---5-4-3---5-4-3------------------------------|
E|-3-------3-------3-------3------------------------------------|

Gm
Down where the road turns and the buildings go high like rockets
                   Cm
shooting in to the sky in the country-side in the black night
Gm                                   Eb   Bb    A G#  Gm  D
In abanded barn, in the first light, thats when I saw it

Gm
Early November and pack your bags, remember the whisper
                   Cm
and throw it back, look for an answer: dont throw up
Gm                               Eb   Bb    A G#   Gm
busride and carsick and lovesick thats when I felt it
Eb   Bb    A G#   Gm  D
Thats when I felt it

Gm                    G#
Thank you darling for being a friend, for being a friend,

for being a friend
Gm                       G#                  D
Next year this time I'll see you again, I'll see you again

e|--------------------------------------------------------------|
B|--------------------------------------------------------------|
G|----7---6-5---7-6-5------7-6-5--------------------------------|
D|-5----8-----5-------8--5-------8------------------------------|
A|--------------------------------------------------------------|
E|--------------------------------------------------------------|

|D  |

Gm
Like everyone else I was asking myself wheres my little place
                Cm
in the world it was getting harder I was lost for words
Gm                                Eb   Bb A G#
hell I was counting every sylible mount na na now
Gm
how can tell you how sorry I am not being there for you
              Cm
when you came to a conclusion about everything
Gm                                  Eb  Bb A G#   Gm   Eb  Bb A
That meant someting its strange how I turned into you

Gm                    G#
Thank you darling for being a friend, for being a friend,

for being a friend
Gm                       G#
Next year this time I'll see you again, I'll see you again

I'll see you again
Gm               G#
climb the top of tallest tree and look for me and look for me
Gm                        D
down where the road turns thats where I'll be

|Gm  |Gm  |A   |A   |Gm  D|

Gm
Back in that small town where the stupid is think-smart
                                        Cm
kiss the ground kid do you have to make such a fuzz about
                            Gm
that you dont like it here, No but still yeah I mean, I mean
Eb  Bb         A  G#    Gm         Eb             Bb
I mean to blow you away    you can have it,I dont want it
  A   G#     Gm   D
I dont wanna stay

|Gm   |Cm   | til end
Suggest correction
Give kudos to tab author, rate the tab!
1 2 3 4 5
comments
print report bad tab
guest
You may want to rate the tab now too:
select rating
Wanna post a correction for this tab? Suggest correction