Oops, an error
Loading. Please wait.

Circles Tab

1 view 1 this week
no commentswrite comment
1 2 3 4 5
3 more votes to show rating
add to favorites
launch autoscroll
font size
0
reset
how to read this tab
guitar tuner
Autoscroll
slow
fast
+/-
esc
set tempo
stop
Help us to improve Ultimate-Guitar.com Take our survey!
×
Author
Capo
2nd fret
Capoklämma på andra bandet.

[intro/mellanspel]
e|--------------------------------------------------------------|
B|--------------------------------------------------------------|
G|----0---0---0---0---------------------------------------------|
D|---0---0---0---0----------------------------------------------|
A|--1---1---1---0-----------------------------------------------|
E|-3---3---3---1------------------------------------------------|

[Verse]
e|--------------------------------------------------------------|
B|--------------------------------------------------------------|
G|----0---0---0---0---0---0----0----0---------------------------|
D|---0---0---0---0---0---0----0----0----------------------------|
A|--3---3---5---5---7---7----9----9-----------------------------|
E|-5---5---7---7---8---8---10---10------------------------------|

Sista versen innan david börjar sjunga och pianot kommer in:
e|--------------------------------------------------------------|
B|----------------------------------0---------------------------|
G|----0---0---0---0---0---0----0---------0----0-----------------|
D|---0---0---0---0---0---0----0----0----0----0------------------|
A|--3---3---5---5---7---7----9----9----9----9-------------------|
E|-5---5---7---7---8---8---10---10---10---10--------------------|

Sista versen innan refrängen:
e|-----------------------------------------------------------------|
B|-----------------------------------------------------------------|
G|----0---0---0---0---0---0----0----0----0-----0-----0-----0-----0-|
D|---0---0---0---0---0---0----0----0----0----10----10----10----10--|
A|--3---3---5---5---7---7----9----9----9----9-----9-----9-----9----|
E|-5---5---7---7---8---8---10---10---10---10----10----10----10-----|

[Chorus]
ser ut nånting såhär några gånger efter varandra..
e|-------3-------|
B|-------3-------|
G|-------0---0-0-|
D|-0--0--0---0-0-|
A|-1--1--1---1-0-|
E|-3--3--3-----1-|

vet inte exakt hur david spelar
det bygger iallafall på ett accord som ser ut såhär:

e|-3-|
B|-3-|
G|-0-|
D|-0-|
A|-1-|
E|-3-|
Suggest correction
Give kudos to tab author, rate the tab!
1 2 3 4 5
comments
print report bad tab
guest
You may want to rate the tab now too:
select rating
Wanna post a correction for this tab? Suggest correction