Oops, an error
Loading. Please wait.

November Tab

1 view 1 this week
no commentswrite comment
1 2 3 4 5
3 more votes to show rating
add to favorites
launch autoscroll
font size
0
reset
how to read this tab
guitar tuner
Autoscroll
slow
fast
+/-
esc
set tempo
stop
Help us to improve Ultimate-Guitar.com Take our survey!
×
Author
Det här är nästan rätt tror jag.

Capoklämma på femte bandet.

[Intro]
Intro1 + Intro2 + intro 2 + intro 3

[Intro 1]
e|-----------------------------------------------------------------|
B|---0---0---0--.0---0---0---1---1---1---1---1---1-----------------|
G|-----------------------------------------------------------------|
D|-----0---0-------0---0-------2---2-------2---2-------------------|
A|-----------------------------------------------------------------|
E|-3-----------3-----------3-----------3---------------------------|

[Intro 2]
e|-----------------------------------------------------------------|
B|-----0---0---0---0---0---0-----1---1---1---1---1---1-------------|
G|-----------------------------------------------------------------|
D|-------0---0-------0---0---------2---2-------2---2---------------|
A|-0h1-----------------------2h3-----------------------------------|
E|-3-------------3-----------3-------------3-----------------------|

[Intro 3]
e|-----------------------------------------------------------------|
B|-----0---0---0---0---0-0h1p0-------------------------------------|
G|-----------------------------------------------------------------|
D|-------0---0-------0---0h2p0-------------------------------------|
A|-0h1-------------------------------------------------------------|
E|-3-------------3-------------------------------------------------|

[Verse]

Let me ask you..
Isn't it time to..

 2ggr
e|--------------------------------------------------------------------------|
B|---0---0---0---0---0---0---0---0---0---0---1---1-----0--0--0---0--0--0----|
G|--------------------------------------------------------------------------|
D|-----0---0-------0---0-----------2-----------2--------2---2------2--2-----|
A|-----------------------------2-----------2-------2h3---------3------------|
E|-3-----------3-----------0-----------0------------------------------------|

all the things you said
I kept it in my head

 2ggr
e|----------------2---2---2----------------------------------|
B|---0---0---0---------------0---0---0-----------------------|
G|-----------------2---2-------------------------------------|
D|---------2---0---------------0---0-------------------------|
A|-----2-----------------------------------------------------|
E|-0-----------------------3---------------------------------|

 but the things I said to you..............................you
 1ggr
e|----------------2---2---2---------------------------------2----|
B|---0---0---0---------------1---1---1---1---1---1---1---1-3-----|
G|-----------------2---2-----------------------------------2-----|
D|---------2---0---------------2---2-------------------2---0-----|
A|-----2-------------------0-----------0---0---1---3-------------|
E|-0-------------------------------------------------------------|

Forgot it..

 2ggr
e|-----------------------------------------------------------------|
B|---0---0---0--.0---0---0---1---1---1---1---1---1-----------------|
G|-----------------------------------------------------------------|
D|-----0---0-------0---0-------2---2-------2---2-------------------|
A|-----------------------------------------------------------------|
E|-3-----------3-----------3-----------3---------------------------|

 1ggr
e|-----------------------------------------------------------------|
B|-----0---0---0---0---0-0h1p0-------------------------------------|
G|-----------------------------------------------------------------|
D|-------0---0-------0---0h2p0-------------------------------------|
A|-0h1-------------------------------------------------------------|
E|-3-------------3-------------------------------------------------|

 So pull out..
 2ggr
e|--------------------------------------------------------------------------|
B|---0---0---0---0---0---0---0---0---0---0---1---1-----0--0--0---0--0--0----|
G|--------------------------------------------------------------------------|
D|-----0---0-------0---0-----------2-----------2--------2---2------2--2-----|
A|-----------------------------2-----------2-------2h3---------3------------|
E|-3-----------3-----------0-----------0------------------------------------|

all those pretty lies
that came to you at night

 2ggr
e|----------------2---2---2----------------------------------|
B|---0---0---0---------------0---0---0-----------------------|
G|-----------------2---2-------------------------------------|
D|---------2---0---------------0---0-------------------------|
A|-----2-----------------------------------------------------|
E|-0-----------------------3---------------------------------|

 you were blinded by the light..............................you
 1ggr
e|----------------2---2---2---------------------------------2------|
B|---0---0---0---------------1---1---1---1---1---1---1---1-3-------|
G|-----------------2---2-----------------------------------2-------|
D|---------2---0---------------2---2-------------------2---0-------|
A|-----2-------------------0-----------0---0---1---3---------------|
E|-0---------------------------------------------------------------|


You'll forget it..

 2ggr
e|-----------------------------------------------------------------|
B|---0---0---0--.0---0---0---1---1---1---1---1---1-----------------|
G|-----------------------------------------------------------------|
D|-----0---0-------0---0-------2---2-------2---2-------------------|
A|-----------------------------------------------------------------|
E|-3-----------3-----------3-----------3---------------------------|

 1ggr
e|-----------------------------------------------------------------|
B|-----0---0---0---0---0-0h1p0-------------------------------------|
G|-----------------------------------------------------------------|
D|-------0---0-------0---0h2p0-------------------------------------|
A|-0h1-------------------------------------------------------------|
E|-3-------------3-------------------------------------------------|


Maybe...
C D G Em D G C D

Resten får ni fan lista ut själva :)



************************************

| h  Hammer-on
| p  Pull-off

************************************
Suggest correction
Give kudos to tab author, rate the tab!
1 2 3 4 5
comments
print report bad tab
guest
You may want to rate the tab now too:
select rating
Wanna post a correction for this tab? Suggest correction