Oops, an error
Loading. Please wait.

Then I Will Miss You Tab

7 views 1 this week
no commentswrite comment
1 2 3 4 5
3 more votes to show rating
add to favorites
launch autoscroll
font size
0
reset
how to read this tab
guitar tuner
Autoscroll
slow
fast
+/-
esc
set tempo
stop
Help us to improve Ultimate-Guitar.com Take our survey!
×
Author
D xx0232 (plocka)

[Riff 1]
E--------------------------------------------------------------|
B--------------------------------------------------------------|
G--0-0-0--0-0-0-0-0-0--0-0-0--0-0-0--0-0-0--0-0-0--0-0-0-------|
D--------------------------------------------------------------|
A---1-1----1-1---1-1----1-1----3-3----3-3----3-3----3-3--------|
E-3------3-----3------3------1------1------1------1------------|

[Riff 2]
E--------------------------------------------------------------|
B----1-----1-----1-----1-----1-----1-----1-----1---------------|
G--2---2-2---2-2---2-2---2-0---0-0---0-0---0-0---0-------------|
D---2-----2-----2-----2-----2-----2-----2-----2----------------|
A-0-----0-----0-----0-----3-----3-----3-----3------------------|
E--------------------------------------------------------------|

[Riff 1]
The curtains are closed, how can you sleep through this?

you been in the eye of a storm then out again
[Riff 2]
you said to me, you said it years ago

that the longest day of your life was already over and gone
                [Riff 1]
but now in this deserted house maybe you'll take that back

maybe you'll take that back, maybe you'll ride on my back

[Riff 1]
The man in white coat spoke in code and said qoute:

"I know that smell. Its more likely to come from the likes

of you, yeah ive been in your neighberhood"
[Riff 2]
but had I been older, had I know what he meant

I would not have been quiet

I would rip his heart out the chest and shove it down his throat again
      [Riff 1]
but I sat still, and I held your hand, and I held your hand

and I held your hand

[Riff 2]

[Riff 1]
[Riff 1]                               >plocka D< 
Once again I come to think of the days back then
[Riff 1]                                                    >plocka D<
theres spring in the air and I hear your giving up breathing
[Riff 2]
Its a five minute ride to your house and still I never go there

Everyday steals a day from your life and adds another grey hair
              [Riff 1]
and I will be right here until its over and then I will miss you

then I will miss you, then I will miss you, then I will miss you

then I will miss you, then I will miss you, then I will!
Suggest correction
Give kudos to tab author, rate the tab!
1 2 3 4 5
comments
print report bad tab
guest
You may want to rate the tab now too:
select rating
Wanna post a correction for this tab? Suggest correction