Oops, an error
Loading. Please wait.

And Then tab

version 1
version 1

Whole song

6,218 views 39 this week
4 commentsread comments
1 2 3 4 5
x 8
add to favorites
×
Save as Personal and add changes to this tab that will be seen only by you. Learn more ›
×
You can save this tab as Personal to edit and correct it or add notes. All changes will be seen only by you. Learn more »
launch autoscroll
font size
0
reset
how to read this tab
guitar tuner
backing track
0:00
0:00
edit
Autoscroll
slow
fast
+/-
esc
set tempo
stop
Author
Difficulty
intermediate
David Gilmour – And Then…

From studio videos, he’s using his black strat, neck pickup. I used some compressor, small amount of delay, 
and a bit of overdrive and reverb.

[Intro] – Swells with volume pedal – finger/thumb pick
 Electric guitar: 00:18-3:25
e|---------------------------------------------------------------|
B|-12~-12s10s12-s15~~----5~~-s3~~----15b17-(17)-r15------10b12~~-|
G|---------------------------------------------------------------|
D|---------------------------------------------------------------|
A|---------------------------------------------------------------|
E|---------------------------------------------------------------|
 
e|---------------------------------------------------|
B|---------------------------------------------------|
G|---------------------------------------------------|
D|-----5-7s9~~-----5-7s9s7-5-5s7---------------------|
A|-5s7---------5s7---------------7p5-5~--------------|
E|---------------------------------------------------|

e|--------------------------------------------------------|
B|-----5-7-7b8~--5b7r3-5---------3-3s5s3---------3--------|
G|-2s4-------------------4~~-2s4-----------2-2s4----2s4~~-|
D|--------------------------------------------------------|
A|--------------------------------------------------------|
E|--------------------------------------------------------|

e|---12-14-14b15-14-12-----------------12-14-14b15r14-12------------| 
B|--x------------------15--10b12~~--12-------------------15~~~~~~---|
G|-x----------------------------------------------------------------|
D|------------------------------------------------------------------|
A|------------------------------------------------------------------|
E|------------------------------------------------------------------|

e|----12-14-14b15r14-15-17-17b19-(19)~~~-------15b17-15-p12---------| 
B|-12----------------------------------------15-------------15-15---|
G|------------------------------------------------------------------|
D|------------------------------------------------------------------|
A|------------------------------------------------------------------|
E|------------------------------------------------------------------|

e|--12---------------------|
B|-----15p12---------------|
G|-------------14p12-------|
D|-------------------14~~--|
A|-------------------------|
E|-------------------------|

e|--------------------------------------|
B|--------------------------------------|
G|---------7----------------------------|
D|-7p5-7s9---9s7---5-5-5s7s5------------|
A|--------------------------7-7--5-5-5--|
E|--------------------------------------|

e|--------------------------------------|
B|--------------------------------------|
G|-----7-7s9b10r9-----------------------|
D|-5s7------------7-7s9-7—5-5-7b8-7-5---|
A|--------------------------------------|
E|--------------------------------------|

e|------------------------------------15-17-17-17b19~~--|
B|---12-12b13r12~---12-13-13b15----15b------------------|
G|-14-------------14-------------12---------------------|
D|------------------------------------------------------|
A|------------------------------------------------------|
E|------------------------------------------------------|

e|-17h19b21r19-----------17brbr----------------------------------------------|
B|-------------17-17--15--------15~-12-15-15b17-15s10-8-10brbrp8-8brbr-------|
G|--------------------------------------------------------------------9~~s16-|
D|---------------------------------------------------------------------------|
A|---------------------------------------------------------------------------|
E|---------------------------------------------------------------------------|

e|---------------------------------------------------------------------|
B|-15-15-15b17~b17~-12-8-10b12~-----5s8-7-5----------------------------|
G|------------------------------------------5s7-5s4-2-2b3r2-2s4-2p0-2~-|
D|---------------------------------------------------------------------|
A|---------------------------------------------------------------------|
E|---------------------------------------------------------------------|

e|----------------------------------------------------------------------|
B|-------------------------8-10-12b14r10-12~s5-5------3-3s5-------------|
G|-----7-7s12s0-----------------------------------2s4-------4-4—0-2s4~~-|
D|-7s9----------5~-2s5-5~-----------------------------------------------|
A|----------------------------------------------------------------------|
E|----------------------------------------------------------------------|

e|-----------------------------------------|
B|-5s8-10-12-12s14-12-10----12b14-12-10s3--|
G|-----------------------9-----------------|
D|-----------------------------------------|
A|-----------------------------------------|
E|-----------------------------------------|

e|-----------------------10-10--------------------------|
B|-----3-5-8-10-10b12(hold-bend)-----12-15-15b17~~~~~~--|
G|-2s4--------------------------------------------------|
D|------------------------------------------------------|
A|------------------------------------------------------|
E|------------------------------------------------------|

 Nylon string/classical acoustic outro:
 3:27-4:12
e|-----3-3------------------3-3s5-3-----------|
B|-----------5-5---3----3s5---------5-3-5-----|
G|-2s4-----2-----4------------------------4-4-|
D|--------------------------------------------|
A|--------------------------------------------|
E|--------------------------------------------|

e|----2-3--5-5s7-7--10-10p7-7-------7-10-------------|
B|-3s5-------------------------8-10------8-8---------|
G|-------------------------------------------9s7-7~--|
D|---------------------------------------------------|
A|---------------------------------------------------|
E|---------------------------------------------------|

e|---------------------------------------------10-10-|
B|-------7-8-7--------------7-8-7------8-10s12-------|
G|-5s7-9-------9-7----5s7-9-------9-7~~--------------|
D|-----------------9---------------------------------|
A|---------------------------------------------------|
E|---------------------------------------------------|

e|-------10-12-12------------10-10-------------------------------------------|
B|-10s12----------12-12--8-8-------10-10---7-8-8s10-8-7----------------------|
G|-----------------------------------------------------9-7-------------------|
D|---------------------------------------------------------7s9-7-5-----------|
A|-----------------------------------------------------------------7p5---5s7-|
E|--------------------------------------------------------------------7-5----|

************************************

| (n)  Ghost note
| ~    Vibrato
| s    Slide
| p    Pull-off
| r    Release
| b    Bend
| x    Dead note
| h    Hammer-on

************************************
Suggest correction
Creating personal tab
Creating personal tab
You can edit any tab online and save it as your Personal.

You can edit, replace or remove any tab part or add personal notes – all changes will be seen only by you.

Personal tabs can be accessed anytime from any device, even offline.
Learn more »
comments
print report bad tab
4 comments total. Showing first comments.
0 reply
Muser00 1,083 Sep 22, 2015 05:17 AM

Great work! sounds perfect

0 reply
MIKLO230 16 Nov 03, 2015 02:40 PM

Well written, thanks. Great tune.

0 reply
asordi39 10 Apr 15, 2017 08:00 AM

👍

guest
You may want to rate the tab now too:
select rating
Wanna post a correction for this tab? Suggest correction