Oops, an error
Loading. Please wait.

Castellorizon tab

version 2
version 2

Whole song

Interactive

22,882 views 24 this week
3 commentsread comments
1 2 3 4 5
x 15
add to favorites
×
Save as Personal and add changes to this tab that will be seen only by you. Learn more ›
×
You can save this tab as Personal to edit and correct it or add notes. All changes will be seen only by you. Learn more »
launch autoscroll
font size
0
reset
how to read this tab
guitar tuner
backing track
0:00
0:00
edit
Autoscroll
slow
fast
+/-
esc
set tempo
stop
-------------------------------------------------------------------------------
                             CASTELLORIZON - David Gilmour
-------------------------------------------------------------------------------
Tabbed by:      Gareth J. Hill
Email:          bujin1977@hotmail.com

Tuning: Standard

(NOTE: No indication of timing given - listen to the song to get the correct
timing!  I've also not included things like vibratos - it's easy enough to
work out when to use them!)

e|---------------------------------------------------------------------------|
B|------12b13---(13)r12p10-12---b13r12p10-12---------------------------------|
G|--9-9--------------------------------------9-9-----------------------------|
D|---------------------------------------------------------------------------|
A|---------------------------------------------------------------------------|
E|---------------------------------------------------------------------------|

e|---------------------------------------------------------------------------|
B|---------------------------------------------------------------------------|
G|--9-11-11b12---(12)r11p9-11---b12r11-9\7-9---------------------------------|
D|-------------------------------------------9-9\7-/9------------------------|
A|-----------------------------------------------------7-7-------------------|
E|---------------------------------------------------------------------------|

           *
e|-------------------------------------------------12p15---------------------|
B|--13b15r-b17----(17)b18r15b17-----r15p12----15---------15b17---------------|
G|-----------------------------------------14--------------------------------|
D|---------------------------------------------------------------------------|
A|---------------------------------------------------------------------------|
E|---------------------------------------------------------------------------|

* Once again, Gilmour does a ridiculous bend here.  Since my fingers aren't
  strong enough, I slide up to the 15th fret and bend to 17th from there.

e|------0-3------------------------------------------------------------------|
B|--3/5-----5p0--3/5-\0------------------------------------------------------|
G|----------------------2b3r2p0---2---0-2-2b3r2b4----------------------------|
D|------------------------------2---2----------------------------------------|
A|---------------------------------------------------------------------------|
E|---------------------------------------------------------------------------|

e|--19b20--r19-17h19b20---r19p17-19---b20r19p17-19---------------------------|
B|-------------------------------------------------17-17---------------------|
G|---------------------------------------------------------------------------|
D|---------------------------------------------------------------------------|
A|---------------------------------------------------------------------------|
E|---------------------------------------------------------------------------|

e|--------------------------------------------------------------------12-----|
B|--(11)r10b11---(11)r10-(11)r10-(11)r10----(11)r10p8---8-10b11r10b12--------|
G|----------------------------------------------------9----------------------|
D|---------------------------------------------------------------------------|
A|---------------------------------------------------------------------------|
E|---------------------------------------------------------------------------|

e|---------------------------------------------------------------------------|
B|-(12)r10p8---10---8-10-10b12-----------------------------------------------|
G|-----------9----9------------9-\-------------------------------------------|
D|---------------------------------------------------------------------------|
A|---------------------------------------------------------------------------|
E|---------------------------------------------------------------------------|

                * 
e|--17h19-19b20b(22)-19b20--r19p17-19--b20r19p17-19--------------------------|
B|--------------------------------------------------17-17-\------------------|
G|---------------------------------------------------------------------------|
D|---------------------------------------------------------------------------|
A|---------------------------------------------------------------------------|
E|---------------------------------------------------------------------------|

* Another Gilmour Super-Bend.  Personally, I find it easier to do the first 
  bend from 19th fret, then hit the 21st fret while the string is still bent.

e|-----------12----15b17--14b15-14-12-11-------------------------------------|
B|--------12----12-----------------------12b13-12-10-10b12-------------------|
G|--14b16--------------------------------------------------------------------|
D|---------------------------------------------------------------------------|
A|---------------------------------------------------------------------------|
E|---------------------------------------------------------------------------|


Another note for all you GuitarPort (2.5) users out there - I use this tone
for this one - it's relatively close.  If anyone can tell me how to get
enough sustain the final note to last the 14 seconds it does at the end of
the song, I'll be ever so grateful!  ;o)

AMP: 1993 Solo 100 Head, Drive: 5; Bass: 7; Mid: 5; Treb: 6; Pres: 8
CAB: 4x12 1978 Brit Celest T-75s
WAH: Posn = middle
MOD: Post Config, Sine Chorus, 0.39Hz, 50%, 75%, 60%, 42%
DEL: Post Config, Analog Delay w/ Modulation, 402ms, 23%, 50%, 50%, 37%
REV: Post Config, Medium Hall or Cavernous

Playing on a Fender Strat, bridge pickup.


| /  slide up
| \  slide down
| h  hammer-on
| p  pull-off
| ~  vibrato
| +  harmonic
| x  Mute note
| b  Bend
| r  Release
===============================================================================

            
            
Suggest correction
Creating personal tab
Creating personal tab
You can edit any tab online and save it as your Personal.

You can edit, replace or remove any tab part or add personal notes – all changes will be seen only by you.

Personal tabs can be accessed anytime from any device, even offline.
Learn more »
comments
print report bad tab
3 comments total.
0 reply
Dave Gilmour 40 Dec 28, 2007 09:29 AM

Fantastic tab work! sounds great! But when I play it, I switch between neck and bridge, not solely bridge alone. Keep it
up!

0 reply
Joeval 50 Nov 19, 2008 05:37 AM

Awesome tab, thanks man!

-1 reply
Joeval 50 Dec 24, 2008 08:53 AM

Cheers dude, awesome tab

guest
You may want to rate the tab now too:
select rating
Wanna post a correction for this tab? Suggest correction