Oops, an error
Loading. Please wait.

In Any Tongue solo tab

10,515 views 225 this week
1 commentread comment
1 2 3 4 5
x 6
add to favorites
×
Save as Personal and add changes to this tab that will be seen only by you. Learn more ›
×
You can save this tab as Personal to edit and correct it or add notes. All changes will be seen only by you. Learn more »
launch autoscroll
font size
0
reset
how to read this tab
guitar tuner
backing track
0:00
0:00
edit
Autoscroll
slow
fast
+/-
esc
set tempo
stop
Author
Difficulty
-------------------------------------------------------------------------------
                        In Any Tongue - David Gilmour
-------------------------------------------------------------------------------
Tabbed by: Muser00
E-mail: Muser@outlook.it

Tuning: Standard ( EADGBe )

Solo: 4:57    ( with Whammy pedal )

     +    +    +    +    +    +    +    +   
e|---15---15b16/13-------15---15b16/13----|
B|---------------------x------------------|
G|-------------------x--------------------|
D|----------------------------------------|
A|----------------------------------------|
E|----------------------------------------|

e|----------------6-8--------------------------|
B|-------------8b9----9-6-----8----------------|
G|------8-8h10------------8b10-----------------|
D|--/10-------------------------10b11-8h10-10--|
A|---------------------------------------------|
E|---------------------------------------------|

e|---------------------------------------/13-15-15b16---15-13-13--------------------|
B|---------8b9----8b9br8-----------------------------------------16--13-16b18br16---|
G|------10---------------10--8-8---5h8h5--------------------------------------------|
D|--/10-----------------------------------------------------------------------------|
A|----------------------------------------------------------------------------------|
E|----------------------------------------------------------------------------------|

e|----------------------------------------------13-15-------------------------------|
B|-16b18--16b18-16-13------13-----------13-16b18------16-13------13-16b18-16b18-13--|
G|--------------------15b17---15-15b17----------------------15b17-------------------|
D|----------------------------------------------------------------------------------|
A|----------------------------------------------------------------------------------|
E|----------------------------------------------------------------------------------|

e|---15b16-15-15h13----------------------------------------------------------|
B|-x----------------16-16-----------/9-9-8h9h8------9--9h8h6-----6-----------|
G|-------------------------15b17---------------10-8----------8b10--8b10------|
D|---------------------------------------------------------------------------|
A|---------------------------------------------------------------------------|
E|---------------------------------------------------------------------------|

e|-------------------------------------------------------------------------|
B|-------------------------------------------------------------------------|
G|---------------------------------------------8-8h10//12//13//15--15b17---|
D|----6-8-8b10br8brb10--8-6-8b10br8brb10---/10-----------------------------|
A|-/8----------------------------------------------------------------------|
E|-------------------------------------------------------------------------|

    +   +   +   +   +   +   +
e|----15-15h13--13h15----13~-------------------------------------------------|
B|--x------------------------------------------------------------------------|
G|---------------------------------------------------------------------------|
D|---------------------------------------------------------------------------|
A|---------------------------------------------------------------------------|
E|---------------------------------------------------------------------------|



************************************

| /   slide up
| \   slide down
| h   hammer-on
| p   pull-off
| ~   vibrato
| +   harmonic
| x   Mute note
| b   Bend
| pb  Pre-bend
| br  Bend release
| pbr Pre-bend release
| brb Bend release bend

************************************

            
            
Suggest correction
Creating personal tab
Creating personal tab
You can edit any tab online and save it as your Personal.

You can edit, replace or remove any tab part or add personal notes – all changes will be seen only by you.

Personal tabs can be accessed anytime from any device, even offline.
Learn more »
comments
print report bad tab
1 comment total.
0 reply
I_am_xan 10 Jan 01, 2016 07:20 AM

timing is bad, mistakes, mixed bends and slides. Enter at least 15 words Enter at least 15 words Enter at least 15 words

guest
You may want to rate the tab now too:
select rating
Wanna post a correction for this tab? Suggest correction