Oops, an error
Loading. Please wait.

This Heaven tab

version 1
version 1

Whole song

21,152 views 6 this week
4 commentsread comments
1 2 3 4 5
x 17
add to favorites
×
Save as Personal and add changes to this tab that will be seen only by you. Learn more ›
×
You can save this tab as Personal to edit and correct it or add notes. All changes will be seen only by you. Learn more »
launch autoscroll
font size
0
reset
how to read this tab
guitar tuner
edit
Autoscroll
slow
fast
+/-
esc
set tempo
stop
Author
Song: This Heaven
Artist: David Gilmour
Album: On An Island (2006)


These are the 2 main riffs that Dave is playing with he's Acoustic:


e|-------------------------------|
B|-------------------------------|
G|--------5--8--7----------------|
D|-----6------------8-----6------|
A|--8------------------8---------|
E|-------------------------------|
("so bake the bread and pour the wine") \ ("Life is much more than money buys")


e|-------------------------------------|
B|-------------------------------------|
G|--------5--8--7----------------------|
D|-----6------------8-----6--8--5------|
A|--8------------------8---------------|
E|-------------------------------------|
("I need no blessings but I'm counting mine") \ ("When I see the faith in my children's eyes")

It's pretty esay to play, sound great on acoustic guitars.
When I'll have some free time I'll tab the wonderful guitar solo in the end of the song 
you.

The chord that Dave is playing with his Electric guitar (Gibson Les Paul Goldtop on this 
song) is F5 wich played like that:

e|------------------------------------|
B|------------------------------------|
G|------------------------------------|
D|--3---------------------------------|
A|--3---------------------------------|
E|--1---------------------------------|


Hope you'll enjoy. comment are always welcome :)

yr22,
yr22@walla.co.il

            
            
Suggest correction
Creating personal tab
Creating personal tab
You can edit any tab online and save it as your Personal.

You can edit, replace or remove any tab part or add personal notes – all changes will be seen only by you.

Personal tabs can be accessed anytime from any device, even offline.
Learn more »
comments
print report bad tab
4 comments total. Showing first comments.
0 reply
apples&oranges 369 Mar 05, 2007 10:33 AM

thats perfect man! great tab and an even better song. tab the solo soon haha.

0 reply
Xerxes500 10 Jun 13, 2007 10:49 AM

kudos! great tabbing, but tab the solo!

+2 reply
stonegolem13 146 May 16, 2008 12:11 PM

that's a great tab but for the fact that Gilmour plays it a string higher which would make it
e|-------------------------------|
B|--------1--4--3----------------|
G|-----1------------3-----1------|
D|--3------------------3---------|
A|-------------------------------|
E|-------------------------------|
and
e|---------------------------------|
B|--------1--4--3------------------|
G|-----1------------3-----1--3--0--|
D|--3------------------3-----------|
A|---------------------------------|
E|---------------------------------|
and I agree, tab the solo please

guest
You may want to rate the tab now too:
select rating
Wanna post a correction for this tab? Suggest correction