Oops, an error
Loading. Please wait.

Sweet Victory Tab

version 2
version 2

Whole song

Interactive

1,612 views 1 this week
4 commentsread comments
1 2 3 4 5
please rate
add to favorites
launch autoscroll
font size
0
reset
how to read this tab
guitar tuner
Tab Pro tools
  • play this tab
  • loop segment
  • change instrument
  • show fretboard
  • metronome
×
Best way to learn
"Sweet Victory"
Autoscroll
slow
fast
+/-
esc
set tempo
stop
Contributor
Difficulty
intermediate
-------------------------------------------------------------------------------
     SWEET VICTORY - David Glen Eisley
-------------------------------------------------------------------------------
Tabbed by: Kevin
Email: kevinmbt@yahoo.com

Tuning: Standard

This is how I play the song. There is more than one guitar in the song, but I 
learned how to play it so that one guitar would do most of the other guitars' 
parts. Enjoy!

Piano intro, then after "Will never sacrifice their will":

VERSE:                                                     V (LINE 1)
e|------------1--------------------------------------------|-----------------|
B|--------------1-----------6------6--6--------------6-----|-----------------|
G|----------------2-----------5----5----5--------------5---|-----------------|
D|-----3-----(3)-----5-----(5)--5--3------5---5-----(5)--5-|-3---------------|
A|-----3-----(3)-----3-----(3)----------------3-----(3)----|-1--1--1--1------|
E|-----1-----(1)-------------------------------------------|-----------------|
                                                           ^    x  x  x

e|---------------------------------------------------------------------------|
B|---------------------------------------------------------------------------|
G|---------------------------------------------------------------------------|
D|-3-----------3-----------------------8--8--8--8--8-------8-----------------|
A|-1--1--1--1--1--1--1--1--3--1--------6--6--6--6--6----8--6-----------------|
E|-------------------------------3--1-------------------6--------------------|
      x  x  x     x  x  x

CHORUS:
e|-------1-----------------------------------------------------------------1-|
B|---------1--------------6----------------4-------------------------------1-|
G|--------------------------5----------------3-------------------------------|
D|--3---(3)-----------------------------------------------------------3---(3)|
A|--3---(3)-----------------------------------------------5--6--7--8--3---(3)|
E|--1---(1)----1--3--5---(5)---5--4--3---(3)---3--5--6----------------1---(1)|


e|-------------------------------------------1-------------------------------|
B|---------------------------------------------1--------------6--------------|
G|-7-------------------8--------------------------------------5--------------|
D|-7----7--------------8---8------------3------------------------------------|
A|-5----7----6---8/10------8-----8-10\--3------------------------------------|
E|------5------------------6-----6-8\---1---(1)----1--3--5---(5)---5--4--3---|


e|---------------------------------------------------------------------------|
B|--4------------------------------------------------------------------------|
G|--3------------------------------------------------------------------------|
D|--------------------------5-----------5-----------5------------------------|
A|--------------------------5-----------5-----------5------------------------|
E|-(3)---3--5--6----6--5----3--3--3--3--3--3--3--3--3--3--3--3--3--1---------|
                               x  x  x     x  x  x     x  x  x  

                       V (LINE 2)
e|---------------------|--------|
B|---------------------|--------|
G|---------------------|--------|
D|--8--8--8--8--8------|-8------|
A|--6--6--6--6--6----8-|-6------|
E|-------------------6-|--------|
                       ^
AFTER CHORUS#1:

e|-----------------------------------------------------------------5---------|
B|------10--8--6--5--6---/10---8---6-5-6----/10--8-6/5-5~~~----------5-------|
G|---------------------------------------------------------------------7-----|
D|-7------------------------------------------------------------7-(7)--------|
A|-5------------------------------------------------------------5-(5)--------|
E|---------------------------------------------------------------------------|


e|----1----------3-----------------------------5---------1---------3---------|
B|------1----------3---------------10------------5---------1---------3-------|
G|--------3----------5-----12br-10----10-----------7---------3---------5-----|
D|-3-(3)------5-(5)----------------------12-7-(7)-----3-(3)-----5-(5)-----7--|
A|-1-(1)------3-(3)-------------------------5-(5)-----1-(1)-----3-(3)-----5--|
E|---------------------------------------------------------------------------|

e|-------------------------------------------------------------------|
B|-13b-13b-13b-13brp10-----------------------------------------------|
G|---------------------12brp10-12-10~--------------------------------|
D|-------------------------------------------------------------------|
A|-------------------------------------------------------------------|
E|-------------------------------------------------------------------|

BLEND INTO APPROPRIATE PART OF VERSE EXCEPT AFTER LINE 1:

e|-------------------------------------------------------------------|
B|-------------------------------------------------*7pb--------------|
G|-------------------------------------------------------------------|
D|-3-3-3-3-3-3-3-3-3-3-3-3-3-3-3-3-5-5-5-5-5-5-5-5-------------------|
A|-1-1-1-1-1-1-1-1-1-1-1-1-1-1-1-1-3-3-3-3-3-3-3-3-------------------|
E|-------------------------------------------------------------------|

CHORUS#2 RIFF:

				                                          |UNSURE|
e|---------------------------13-----------15b-15br-13-15-13--|
B|-11b-11-10-11-11br-10-8-----------------15b-15br-----------|
G|------------------------10---------------------------------|
D|-----------------------------------------------------------|
A|-----------------------------------------------------------|
E|-----------------------------------------------------------|

AFTER LINE 2:

e|---------------|
B|---------------|
G|---------------|
D|-/5---3--------|
A|----------6----|
E|---------------|

AFTER CHORUS#2:
                                               (gradually let up palm)
e|-------------------------------------------------------------------|
B|-8b--8--6--8b--8--6--6/8-(8)\-8-6----------------------------------|
G|----------------------------------7-5------------------------------|
D|--------------------------------------7-5--------------------------|
A|------------------------------------------8-5-8-8-8-8-8-8-8-8-8-8-8|
E|----------------------------------------------8-8-8-8-8-8-8-8-8-8-8|
                                                x x x x x x x
e|-------------|
B|-------------|
G|-------------|
D|---10--------|
A|-8--8-10-----|
E|-8-----8-----|

SOLO (This is kind of hard, and some parts I'm not 100% sure about)

e|-------------------------------------------------------------------| 
B|------10-----10-----10-----10--------------------------------------|
G|-*12b----12b----12b----12b----12b-12b-12-10-10b~~~-12brp10-12-*10\-|
D|-------------------------------------------------------------------|
A|-------------------------------------------------------------------|
E|-------------------------------------------------------------------|

	              	  |---UNSURE----|
e|------------13-15b-15b-15b-15b-------------------------------------|
B|10-11-13-/15-------15b-----15b-16brb-16p15p13-15p13---13-----------|
G|---------------------------------------------------15---15p13-15p13|
D|-------------------------------------------------------------------|
A|-------------------------------------------------------------------|
E|-------------------------------------------------------------------|

	             |IMPROVISE TO THIS SCALE|
e|-17-18-20b--17-18-20--------------------16b-16b-16p13h15p13--13----|
B|---------------------17-18-20--------13--------------------16-16p13|
G|------------------------------19-17--------------------------------|
D|-------------------------------------------------------------------|
A|-------------------------------------------------------------------|
E|-------------------------------------------------------------------|

e|-----16-16----------------------------------------------|
B|-16b(16)16b----18b~~~--------------------12brp10----10\-|
G|-------------------------------------------------12-----|
D|--------------------------------------------------------|
A|--------------------------------------------------------|
E|--------------------------------------------------------|

CHORUS#3 RIFFS

e|-13-12-10h12p10-----------------------|
B|----------------13-11-10h11p11--------|
G|-------------------------------12-10\-|
D|--------------------------------------|
A|--------------------------------------|
E|--------------------------------------|

e|-----------------------------|
B|-18b-18-17-18-18br-17-15-----|
G|-------------------------18\-|
D|-----------------------------|
A|-----------------------------|
E|-----------------------------|

   |UNSURE|
e|-15b-15br-13-15br-13\-|
B|-15b-15br-------------|
G|----------------------|
D|----------------------|
A|----------------------|
E|----------------------|

END WITH EXTRA:

e|--------------|
B|--------------|
G|--------------|
D|---8-(8)------|
A|-8-6-(6)------|
E|-6------------|

So there you have it. It took a long time for me to learn it. I hope you enjoy!

************************************

| /   slide up
| \   slide down
| h   hammer-on
| p   pull-off
| ~   vibrato
| +   harmonic
| x   Mute note
| b   Bend
| pb  Pre-bend
| br  Bend release
| pbr Pre-bend release
| brb Bend release bend
| *   Pinch harmonic

************************************
comments
We did not receive enough feedback on this tab! Please rate:
print report bad tab
1 2 3 4 5
4 comments total. Showing first comments.
-1 reply
kevinmbt wrote on March 18 2011, 11:45 am

[CORRECTION]

CHORUS#2 RIFF:

|UNSURE|
e|---------------------------13-----------15b-15br-13-15-13--|
B|-11b-11-10-11-11br-10-8-----------------15b-15br-----------|
G|------------------------10---------------------------------|
D|-----------------------------------------------------------|
A|-----------------------------------------------------------|
E|-----------------------------------------------------------|

0 reply
kevinmbt wrote on March 18 2011, 11:47 am

[CORRECTION

|---UNSURE----|
e|------------13-15b-15b-15b-15b-------------------------------------|
B|10-11-13-/15-------15b-----15b-16brb-16p15p13-15p13---13-----------|
G|---------------------------------------------------15---15p13-15p13|
D|-------------------------------------------------------------------|
A|-------------------------------------------------------------------|
E|-------------------------------------------------------------------|

[CORRECTION]

|IMPROVISE TO THIS SCALE|
e|-17-18-20b--17-18-20--------------------16b-16b-16p13h15p13--13----|
B|---------------------17-18-20--------13--------------------16-16p13|
G|------------------------------19-17--------------------------------|
D|-------------------------------------------------------------------|
A|-------------------------------------------------------------------|
E|-------------------------------------------------------------------|

0 reply
kevinmbt wrote on March 18 2011, 11:49 am

*sigh*
Ignore the second one. I'm just trying to put the "UNSURE" and "IMPROVISE" parts in the right place

I want to post or [tab]
guest
You may want to rate the tab now too:
select rating
Please do not post tabs as comments. Select "correction" instead!