Oops, an error
Loading. Please wait.

Babylon intro tab

version 1
version 1

Intro

  • This tab is based off of the version from the Whit... Show more

Whole song

Interactive

19,982 views 12 this week
no commentswrite comment
1 2 3 4 5
1 last vote to show rating
add to favorites
×
Save as Personal and add changes to this tab that will be seen only by you. Learn more ›
×
You can save this tab as Personal to edit and correct it or add notes. All changes will be seen only by you. Learn more »
launch autoscroll
font size
0
reset
how to read this tab
guitar tuner
backing track
0:00
0:00
edit
Autoscroll
slow
fast
+/-
esc
set tempo
stop
Capo on 1st fret for both guitars  

notes relative to capo


Guitar 1

E|--------------3-----3---------------------------------------------------------|
B|----------------------------------2-----3-----------------------------0-------|
G|----------1s2----2------------1s2----2----------------------------------0-----|x2 
D|--------------------------------------------------------------------0-----0---|
A|-------------------------------------------------------2--0-------2-----------|
E|-------------------------------------------------4s5---------2--3-------------|


Guitar 2

E|----2---2-------2------------------------------------------------------------|
B|----3---3-------3-------2---2-------2----------------------------------------|
G|----2---2-------2-------2---2-------2---------------------------0---0--------|
D|------------------------2---2-------2-------2---2------2--------0---0--------|x2
A|--------------------------------------------2---2------2--------2---2--------|
E|----------------------------------------------------------------3---3--------|

            
            
Suggest correction
Creating personal tab
Creating personal tab
You can edit any tab online and save it as your Personal.

You can edit, replace or remove any tab part or add personal notes – all changes will be seen only by you.

Personal tabs can be accessed anytime from any device, even offline.
Learn more »
Give kudos to tab author, rate the tab!
1 2 3 4 5
comments
print report bad tab
guest
You may want to rate the tab now too:
select rating
Wanna post a correction for this tab? Suggest correction