Oops, an error
Loading. Please wait.

Babylon Tab

version 2
version 2

Whole song

Interactive

Video

11,192 views 3 this week
5 commentsread comments
1 2 3 4 5
x 3
add to favorites
launch autoscroll
font size
0
reset
how to read this tab
guitar tuner
backing track
0:00
0:00
×
Best way to learn
"Babylon"
Autoscroll
slow
fast
+/-
esc
set tempo
stop
Capo
1st fret
Babylon 2 ( with acoustic intro) - David Gray
Tabbed by Scott Brabson

Alright, here's my second tab, though I'm sure it's pretty darn accurate. I've seen a 
lot of tabbings for this song, but none for the opening and few with the proper riff for 
the verse. 

Make sure to CAPO 1ST FRET

intro:
     (D) (D)                                 (A)  (A)
e|--2---2-----------2-------2--------------------------------------
B|--3---3---------------3----------2----2------------2------3----
G|--2---2---0h2------------------2----2----------------2--------
D|-----------------------------------2----2----0h2----------------
A|---------------------------------------------------------------------
E|---------------------------------------------------------------------
     (Em) (Em)    
e|----------------------------------------------------------------------
B|-------------------------------------------------0-------------------
G|------------------------------------------------------2--------------
D|---2------2-----------0--------------------0------------0---------
A|---2------2-----0h2-----2--0---------2--------------------------
E|-----------------------------------2--0------------------------------
Verse:
e|----------------------------------------------------------------
B|-------2h3p2------------3--0--3--3-----------------------
G|-------2-------------------2---------2-----------------------
D|-------------------0------------------------------------------
A|----------------------------------------------------------------
E|---2-------------------3---------------------------------------
Chorus:
The chorus is different in that it doesn't have any individual picking, rather, a soft 
strum of these chords:

D, A, Em, A   (progression 1)
D, A, Em, G  (progression 2)

Progression 2 follows number 1 and continues in this patter until returning to the verse.

That's pretty much it, the verse riff is accurate for the most part, though it was kind of
tough to pick out the little muddled picking. E-mail me with questions/comments at 
igsb22@aol.com. Hope this helped out and God bless.

In Our Glorious God's Service,
Scotty B
Suggest correction
Give kudos to tab author, rate the tab!
1 2 3 4 5
comments
print report bad tab
5 comments total. Showing first comments.
0 reply
Scog 30 Mar 31, 2002 07:00 PM

So I'm new to the tabbing thing, and it looks like it messed up. In the intro, those 2 (A)'s are suppose to be line up over the two rows of 2's. Basically, play two A's and then play the riff listed after it...make sense? If not, e-mail me and I'll show ya the right way to do it. Sorry for the mistake...please forgive me.
-Scott

0 reply
Scog 30 Apr 01, 2002 07:00 PM

(D) (D) (A) (A)
e|--2---2-----------2-------2--------------------------------------
B|--3---3---------------3------------2----2------------2------3----
G|--2---2---0h2---------------------2----2----------------2--------
D|-----------------------------------2----2----0h2----------------
A|---------------------------------------------------------------------
E|---------------------------------------------------------------------

0 reply
Scog 30 Apr 01, 2002 07:00 PM

e|----------------------------------------------------------------------
B|-------------------------------------------------0-------------------
G|------------------------------------------------------2--------------
D|---2------2-----------0----------------------0------------0---------
A|---2------2-----0h2-----2--0-----------2--------------------------
E|---------------------------------2--0------------------------------

guest
You may want to rate the tab now too:
select rating
Wanna post a correction for this tab? Suggest correction