Oops, an error
Loading. Please wait.

My Oh My tab

version 2
version 2

Whole song

8,422 views 1 this week
no commentswrite comment
1 2 3 4 5
1 last vote to show rating
add to favorites
×
Save as Personal and add changes to this tab that will be seen only by you. Learn more ›
×
You can save this tab as Personal to edit and correct it or add notes. All changes will be seen only by you. Learn more »
launch autoscroll
font size
0
reset
how to read this tab
guitar tuner
edit
Autoscroll
slow
fast
+/-
esc
set tempo
stop
Tabs by Leon Warth
Capo: 3rd fret (tabs relative to capo)
Tuning: E-A-E-G#-B-E

What on earth is going on in my heart
Has it turned as cold as stone
Seems these days I don't feel anything
Less it cuts me right down to the bone
What on earth is going on in my heart

E |--0-----0-----0------0-2-0----|
B |--4-----2-----4------2-0-2----|
G#|--5-----3-----5------3-3-3----|
E |--4-----2-----4------2-2-2----|
A |--4-----2-----4------2-2-2----|
E |------------------------------|


My oh my you know it just don't stop
It's in my mind I wanna tear it up
I've tried to fight it tried to turn it off
But it's not enough

E |--0-----------0-----------------|
B |--0-----------0-----------------|
G#|--7-----------6-----------------|
E |--7-----------7-----------------|
A |--7-----------7-----------------|
E |--0-----------0-----------------|


It takes a lotta love
It takes a lotta love my friend
To keep your heart from freezing
To push on till the end
My oh my

E |--0-----3-----3-----3-----5-----0-----|
B |--10----3-----3-----3-----5-----0-----|
G#|--8-----4-----3-----4-----6-----7-----|
E |--9-----3-----3-----3-----5-----7-----|
A |--0-----3-----5-----3-----5-----7-----|
E |--------------3-----------------0-----|


What on earth is going on in my head
You know I used to be so sure
You know I used to be so definite
Thought I knew what love was for
I look around these days and I'm not so sure

E |--0-----0-----0------0-2-0----|
B |--4-----2-----4------2-0-2----|
G#|--5-----3-----5------3-3-3----|
E |--4-----2-----4------2-2-2----|
A |--4-----2-----4------2-2-2----|
E |------------------------------|

My oh my you know it just don't stop
It's in my mind I wanna tear it up
I've tried to fight it tried to turn it off
But it's not enough

E |--0-----------0-----------------|
B |--0-----------0-----------------|
G#|--7-----------6-----------------|
E |--7-----------7-----------------|
A |--7-----------7-----------------|
E |--0-----------0-----------------|


It takes a lotta love
It takes a lotta love my friend
To keep your heart from freezing
To push on till the end

E |--0-----3-----3-----3-----5-----0-----|
B |--10----3-----3-----3-----5-----0-----|
G#|--8-----4-----3-----4-----6-----7-----|
E |--9-----3-----3-----3-----5-----7-----|
A |--0-----3-----5-----3-----5-----7-----|
E |--------------3-----------------0-----|


My oh my you know I just can't win
I burn it down it comes right back again
What kinda world is this we're living in
where you never win

E |--0-----------0-----------------|
B |--0-----------0-----------------|
G#|--7-----------6-----------------|
E |--7-----------7-----------------|
A |--7-----------7-----------------|
E |--0-----------0-----------------|

It takes a lotta love
It takes a lotta love these days
To keep your heart from freezing
To keep your spirit free
My oh my

E |--0-----3-----3-----3-----5-----0-----0----0-----0----|
B |--10----3-----3-----3-----5-----4-----2----4-----2----|
G#|--8-----4-----3-----4-----6-----5-----3----5-----3----|
E |--9-----3-----3-----3-----5-----4-----2----4-----2----|
A |--0-----3-----5-----3-----5-----4-----2----4-----2----|
E |--------------3---------------------------------------|


            
            
Suggest correction
Creating personal tab
Creating personal tab
You can edit any tab online and save it as your Personal.

You can edit, replace or remove any tab part or add personal notes – all changes will be seen only by you.

Personal tabs can be accessed anytime from any device, even offline.
Learn more »
Give kudos to tab author, rate the tab!
1 2 3 4 5
comments
print report bad tab
guest
You may want to rate the tab now too:
select rating
Wanna post a correction for this tab? Suggest correction