Oops, an error
Loading. Please wait.

Oni I Love bass

521 views 1 this week
no commentswrite comment
1 2 3 4 5
3 more votes to show rating
add to favorites
×
Save as Personal and add changes to this tab that will be seen only by you. Learn more ›
×
You can save this tab as Personal to edit and correct it or add notes. All changes will be seen only by you. Learn more »
launch autoscroll
font size
0
reset
guitar tuner
edit
Autoscroll
slow
fast
+/-
esc
set tempo
stop
Author
David Gray - The One I Love

This isn't a full start-to-finish tab. Also, it's not exactly as per the original.

However, this is what I play when I'm gigging it. All the main sections are there. Just 
to it to pick up the changes.

Enjoy!

\=Slide down
/=Slide up

  Perfect summers night          N-o-t a wind that breathes
G|-------------------------------------------------------------------------|
D|-------------------------------------------------------------------------|
A|-10\-----3------3-----0--3--3--5—-3--2-----------------------------------|
E|----------------------------------------3--------3------0--3--3----------|

   Just the bullets whispering gentle   ‘mongst the new green leaves
G|-------------------------------------------------------------------------|
D|-------------------------------------------------------------------------|
A|--------------------------------------------------3----------3-----3-3---|
E|-3--5--3--1-------1----0--1--0---1--1--0--1---0--------------------------|

  …things I *might have said           O-o-nly wish I could
G|-------------------------------------------------------------------------|
D|-------------------------------------------------------------------------|
A|5---3---2---3---------3-----0--3--3--5—-3--2-----------------------------|
E|----------------------------------------------3------3------0--3--3------|

   Now I'm leaking  life      faster      ‘mongst the new green leaves
G|-------------------------------------------------------------------------|
D|-------------------------------------------------------------------------|
A|--------------------------3-5-5-5-5-5--7-5-------3---3--------3-----0-3-3|
E|-3--5--3--1-1-1-1-1---3-5------------------------------------------------|

   Tell the repo man          And the stars above
G|-------------------------------------------------------------------------|
D|-------------------------------------------------------------------------|
A|---3—-5---------------------------3--5-----5------3--5--5----------------|
E|----------1----1---0--1--1--3--5-----------------------------------------|

   You're the one I love           You're the one I love
G|-------------------------------------------------------------------------|
D|-------------------------------------------------------------------------|
A|5---5----5---3-----3---0-3-3------5—-3---2-------------------------------|
E|---------------------------------------------3-----3-------0—-3—-3-------|

          The one I love
G|-------------------------------------------------------------------------|
D|-------------------------------------------------------------------------|
A|---------3--5-5-5-5-5-5-5-5----------------------------------------------|
E|---3--5---------------------1-1-1-1-1-1-1-1-5---5-5-5-3-0-1-1-0-1-0-1-0--|

                                                              Don't see El…
G|-------------------------------------------------------------------------|
D|-------------------------------------------------------------------------|
A|-3----3-3-3-1----0-------------------------------------------------------|
E|-------------------1-1-0-1-0-1-0-------5---5-5-5-3-0-1-1-0-1-0-----1---0-|

(Don't see El)…ysium      Don't see no fiery hell
G|-------------------------------------------------------------------------|
D|-------------------------------------------------------------------------|
A|-------------3---------------------3-4-----------------------------------|
E|-------------------------------------------------------------------------|

Just the lights up bright baby In the bay hotel         (go to *might have said)
G|-------------------------------------------------------------------------|
D|-----3/7-------------------------7-5---------5-5-5-5-5-5-----------------|
A|---------------------------------------------------------7\--------------|
E|-------------------------------------------------------------------------|
Suggest correction
Creating personal tab
Creating personal tab
You can edit any tab online and save it as your Personal.

You can edit, replace or remove any tab part or add personal notes – all changes will be seen only by you.

Personal tabs can be accessed anytime from any device, even offline.
Learn more »
Give kudos to tab author, rate the tab!
1 2 3 4 5
comments
print report bad tab
guest
You may want to rate the tab now too:
select rating
Wanna post a correction for this tab? Suggest correction