Oops, an error
Loading. Please wait.

Real Love tab

550 views 1 this week
no commentswrite comment
1 2 3 4 5
2 more votes to show rating
add to favorites
×
Save as Personal and add changes to this tab that will be seen only by you. Learn more ›
×
You can save this tab as Personal to edit and correct it or add notes. All changes will be seen only by you. Learn more »
launch autoscroll
font size
0
reset
how to read this tab
guitar tuner
edit
Autoscroll
slow
fast
+/-
esc
set tempo
stop
Tabs by Leon Warth
Capo: 4th fret (tabs relative to capo)
Tuning: Standard

Intro

E |--2----1-0----2-0----1-0-------------|
B |--3----1-1----3-3----1-1-------------|
G |--2----2-2----2-2----2-2-------------|
D |--0----3-3----0-0----3-3-------------|
A |-------------------------------------|
E |-------------------------------------|


The dawn in all its majesty
Is stealing me away

E |--0----6----1----1----1-0------------|
B |--1----6----1----3--------3----------|
G |--0----7----2----2----------2-0------|
D |--2----8----3----0-------------------|
A |--3----8----3------------------------|
E |-------6----1------------------------|


The dawn in all its honesty
Is turning me to clay

E |--0----3----1-0----1----5-3-1--------|
B |--1----3----3-3----1----------1------|
G |--0----0----2-2----2------------2----|
D |--2----0----0-0----3-----------------|
A |--3----2-----------3-----------------|
E |-------3-----------1-----------------|


And through the bars of iron rain
Way beyond and back again
I hear the voice of Eden cry
Lift me up I'm walking on high

E |--0----6----1----3----6----3----6----3----|
B |--1----6----1----3----6----3----6----3----|
G |--0----7----2----0----7----0----7----0----|
D |--2----8----3----0----8----0----8----0----|
A |--3----8----3----2----8----2----8----2----|
E |-------6----1----3----6----3----6----3----|


It's real love
Real love

E |--2---0-2-0-2----3----2---0-2-0-2----3-----------|
B |--3---3-3-3-3----1----3---3-3-3-3----1-----------|
G |--2---2-2-2-2----2----2---2-2-2-2----2-----------|
D |--0---0-0-0-0----3----0---0-0-0-0----3------0----|
A |------------------------------------------3------|
E |-------------------------------------------------|


This world in all its clarity
Is glorious, is fake

This world in all its vanity
Is more than I can take

And down the road the iron wheels
Chain my heart to how it feels
I hear the voice of Eden cry
Lift me up I'm walking on high

It's real love
Real love
Real love
Real love

And something in the heart of me
Is telling me it's time

To meet the eye of destiny
And leave it all behind

And through my bones an iron rage
Paints my soul upon the page
I hear the voice of Eden cry
Lift me up to walk on high
Make me wanna lay down and die

It's real love
Real love
Real love
Real love

The dawn in all its majesty
Is stealing me away

            
            
Suggest correction
Creating personal tab
Creating personal tab
You can edit any tab online and save it as your Personal.

You can edit, replace or remove any tab part or add personal notes – all changes will be seen only by you.

Personal tabs can be accessed anytime from any device, even offline.
Learn more »
Give kudos to tab author, rate the tab!
1 2 3 4 5
comments
print report bad tab
guest
You may want to rate the tab now too:
select rating
Wanna post a correction for this tab? Suggest correction