Oops, an error
Loading. Please wait.

Sqwawk tab

40 views 3 this week
no commentswrite comment
1 2 3 4 5
3 more votes to show rating
add to favorites
×
Save as Personal and add changes to this tab that will be seen only by you. Learn more ›
×
You can save this tab as Personal to edit and correct it or add notes. All changes will be seen only by you. Learn more »
launch autoscroll
font size
0
reset
how to read this tab
guitar tuner
edit
Autoscroll
slow
fast
+/-
esc
set tempo
stop
About this tab version
No other tab exists, at the time of writing. Was this info helpful? Yes No
e|---------------------------------------------------|
B|---------------------------------------------------|
G|------5--------7---5-------------------------------|
D|--7---------------------7-(7)---5---7---4~---------| (x2)                 
A|--0-------0---------------------0------------------|               
E|---------------------------------------------------|     

(then at 0:11)
e|-----------|
B|-----------|
G|-----------| 
D|-----------|
A|--------0--|
E|----0h3----| 

(at 0:18)
e|-------------------------------|-----------| 
B|--/8-8-8-8-8-8-8-8-8-8-8-8-8-8-|-----------| 
G|--/9-9-9-9-9-9-9-9-9-9-9-9-9-9-|9/7p5------| 
D|-------------------------------|------7----|
A|-------------------------------|-----------|
E|-------------------------------|-----------|

(0:21)
e|-------------------------------|-----------| 
B|--/8-8-8-8-8-8-8-8-8-8-8-8-8-8-|-----------| 
G|--/9-9-9-9-9-9-9-9-9-9-9-9-9-9-|9/7--------| 
D|-------------------------------|-----------|
A|-------------------------------|---0-h3/5--|
E|-------------------------------|-----------|

(0:25)
Slide between power chord changes - 
e|--------------------------------------|
B|--------------------------------------|
G|--7-7---5--7--5-----7-7--5------------|
D|--7-7---5--7--5-----7-7--5---------0--| (x3)              
A|--5-5---3--5--3-p0--5-5--3-----0h3----|              
E|--------------------------------------|    

(then at 0:35)
e|-----------|
B|-----------|
G|-----------| 
D|-----------|
A|--0--------|
E|----3p0----|

(0:36)
e|-------0----------------------------------------------|   
B|-----------------/6-6-6-6-6-6-6-6-6-6-6---------------|   
G|-----------------/7-7-7-7-7-7-7-7-7-7-7---------------|   
D|--5/6-------------------------------------------------|  
A|------------------------------------------------------|  
E|------------------------------------------------------|   

e|---------------------------------------------------|
B|---------------------------------------------------|
G|------5--------7---5-------------------------------|
D|--7---------------------7-(7)---5---7---4~---------|                 
A|--0-------0---------------------0------------------|               
E|---------------------------------------------------|   

I'm even less sure of the notes here onward.. 

(0:53)                    (0:57)
e|-----------------------|----------------------------------------------------| 
B|-----------------------|------/8~~------------------------------------------| 
G|----------5------------|------/9~~------7/8p7p5-7-5------7(p5)----(7~~)-----| 
D|--7-7--7~---(5)-7~(p5)-|-----------------------------5h7-----7p5h7(7~~)-----|
A|-----------------------|----------------------------------------------------|
E|-----------------------|----------------------------------------------------|

(1:03)
e|--5------------------------------------|-------------------------| 
B|----8----5-----------------------------|-------------------------| 
G|-----------7b-7--5---7--5--------------|-------------------------| 
D|-------------------7------7----5-----5-|-5-5-5-5-------5-5-5~----|
A|----------------------------7-----7----|---------5/3/------------|
E|---------------------------------------|-------------------------|

(1:10)
e|----------------5---5------------------------------------| 
B|--8-----7------5--5---8--5-------------------------------| 
G|--10b-----9--7b---------7b--5br----7b-----7bvvvvvvv~~~~--| 
D|--------------------------------7------7-----------------|
A|---------------------------------------------------------|
E|---------------------------------------------------------|

(1:16)
e|----5-------------|--------8---------10-----------8------10b-10b~----| 
B|--5-----8b10~~~~--|----/10--10-10-10----10-10-10----(10)-------------|
G|------------------|--------------------------------------------------| 
D|------------------|--------------------------------------------------|
A|------------------|--------------------------------------------------|
E|------------------|--------------------------------------------------|

(1:22)
e|--10br-----------------------------------------------| 
B|-----------------------------------------------------| 
G|-----------------------------------------------------| 
D|-----------------------------------------------------|
A|-----------------------------------------------------|
E|-----------------------------------------------------|

(here's what I have so far, will try again another day - until then, if someone else can add here too 
it'd be great.)

***********************************

| /   Slide up
| \   Slide down
| h   Hammer-on
| p   Pull-off
| ~   Vibrato
| b   Bend
| br  Bend release
| bv  Bend hold vibrato
|(x)  Ghost Note

***********************************

            
            
Suggest correction
Creating personal tab
Creating personal tab
You can edit any tab online and save it as your Personal.

You can edit, replace or remove any tab part or add personal notes – all changes will be seen only by you.

Personal tabs can be accessed anytime from any device, even offline.
Learn more »
Give kudos to tab author, rate the tab!
1 2 3 4 5
comments
print report bad tab
guest
You may want to rate the tab now too:
select rating
Wanna post a correction for this tab? Suggest correction