Oops, an error
Loading. Please wait.

Blast Off Tab

version 1
version 1

Whole song

Interactive

8,332 views 39 this week
3 commentsread comments
1 2 3 4 5
worth learning
x 3
add to favorites
launch autoscroll
font size
0
reset
how to read this tab
guitar tuner
Autoscroll
slow
fast
+/-
esc
set tempo
stop
Help us to improve Ultimate-Guitar.com Take our survey!
×
Difficulty
novice
-------------------------------------------------------------------------------
                             Blast Off - David Guetta
-------------------------------------------------------------------------------
Tabbed by: Ryan
E-mail:rhino765@hotmail.com

Tuning:E Standard

Intro
e|-----------------------------------------------------------------------|      |-----------|
B|----------------7---------------------------------7--------------------|      |-----------|
G|----------7-----------7---------5-7---------7-----------7-----7-5------|      |------5-7--|
D|----------------------------5-7-----------------------------------5+~--|      |--5-7------|
A|-----------------------------------------------------------------------|      |-----------|
E|--5-5-5-5---5-5---5-5---5-5---------5-5-5-5---5-5---5-5---5-5----------|x6    |-----------|x5

Chorus
e|-----------------------------------------------------------------------|      |-----------|
B|----------------7---------------------------------7--------------------|      |-----------|
G|----------7-----------7---------5-7---------7-----------7-----7-5------|      |------5-7--|
D|----------------------------5-7-----------------------------------5+~--|      |--5-7------|
A|-----------------------------------------------------------------------|      |-----------|
E|--5-5-5-5---5-5---5-5---5-5---------5-5-5-5---5-5---5-5---5-5----------|x6    |-----------|x5


************************************

| /   slide up
| \   slide down
| h   hammer-on
| p   pull-off
| ~   vibrato
| +   harmonic
| x   Mute note
| b   Bend
| pb  Pre-bend
| br  Bend release
| pbr Pre-bend release
| brb Bend release bend

************************************
Suggest correction
Give kudos to tab author, rate the tab!
1 2 3 4 5
comments
print report bad tab
3 comments total.
0 reply
ffgdcpzae 88 wrote on July 24 2014, 03:41 pm

Clearly wrong.

0 reply
elindar42 376 wrote on August 29 2014, 03:09 pm

Clearly wrong.

0 reply
tijsg 10 wrote on August 31 2014, 10:51 am

Lesson with correct tabs available here:
https://www.youtube.com/watch?v=zmdE5zovSyM

guest
You may want to rate the tab now too:
select rating
Please do not post tabs as comments. Select "correction" instead!