Oops, an error
Loading. Please wait.

Lovers On The Sun Tab

version 2
version 2

Whole song

Interactive

Video

4,365 views 3 this week
no commentswrite comment
1 2 3 4 5
1 last vote to show rating
add to favorites
launch autoscroll
font size
0
reset
how to read this tab
guitar tuner
×
Best way to learn
"Lovers On The Sun"
Autoscroll
slow
fast
+/-
esc
set tempo
stop
Author
Difficulty
Tuning
  follow
novice
B E A D F# B
-------------------------------------------------------------------------------
                          Lovers on the sun - David Guetta
-------------------------------------------------------------------------------
Tabbed by:Der_aggster
E-mail:alexanderholstner@hotmail.com

Tuning: Gtr 1 BEADGbB (baritone) 
        Gtr 2 EADGBe  (Standard)


Intro/verse Gtr 1
e|------------------------------------------|
B|------------------------------------------|
G|---------------------0--2--0--------------|
D|------2---2---2--4------------4-2-0-------|
A|----2---2---2-----------------------------|
E|--0---------------------------------------|

e|------------------------------------------|
B|------------------------------------------|
G|---------------------0--2--0h2p0----------|
D|------2---2---2--4----------------4-2-0---|
A|----2---2---2-----------------------------|
E|--0---------------------------------------|

Chorus Gtr 1
e|-------------------------------2--------------0------------------------------|
B|-------------------------------3--------------2------------------------------|
G|-0--------------4--------------4--------------2------------------------------|
D|-2--------------5--------------4--------------2------------------------------|
A|-2--------------5--------------2--------------0------------------------------|
E|-0--------------3------------------------------------------------------------|
  Bm             D              Gbm             E
Chorus Gtr 2
e|-2---------------2-----------------------------------------------------------|
B|-3---------------3------------2----------------------------------------------|
G|-4---------------2------------2---------------1------------------------------|
D|-4---------------0------------4---------------2------------------------------|
A|-2----------------------------4---------------2------------------------------|
E|------------------------------2---------------0------------------------------|



************************************

| /   slide up
| \   slide down
| h   hammer-on
| p   pull-off
| ~   vibrato
| +   harmonic
| x   Mute note
| b   Bend
| pb  Pre-bend
| br  Bend release
| pbr Pre-bend release
| brb Bend release bend

************************************
Suggest correction
Give kudos to tab author, rate the tab!
1 2 3 4 5
comments
print report bad tab
guest
You may want to rate the tab now too:
select rating
Wanna post a correction for this tab? Suggest correction