Oops, an error
Loading. Please wait.

Play Hard bass

version 1
version 1

Whole song

Interactive

2,463 views 6 this week
no commentswrite comment
1 2 3 4 5
3 more votes to show rating
add to favorites
×
Save as Personal and add changes to this tab that will be seen only by you. Learn more ›
×
You can save this tab as Personal to edit and correct it or add notes. All changes will be seen only by you. Learn more »
launch autoscroll
font size
0
reset
guitar tuner
edit
Autoscroll
slow
fast
+/-
esc
set tempo
stop
Author
-------------------------------------------------------------------------------
                             Play Hard - David Guetta
-------------------------------------------------------------------------------
Tabbed by: Jack Rayner
Twitter: @thejackrayner

Tuning: EADG

Intro / Synth - Fun to play, not actually a bass part in the song.

G|---------------------------------------------------------------------------|
D|-------------------4-4-1----------------------2-2-1------------------------|
A|-2-2-----2-2-1--------------2-2-----2-2-1----------------------------------|
E|------4---------4----------------4---------4--------------x2---------------|

Can play around with the next 3 parts by doing some hammer ons/slides 
to resemble the song a bit more, you'll find the basic notes below.

Verse 

G|---------------------------------------------------------------------------|
D|-----------[4]x8----------6-6-6-6-6----------------------------------------|
A|--[6]x16-----------4-4-4---------------------------------------------------|
E|----------------------------------------------------------x2---------------|

Bridge

G|---------------------------------------------------------------------------|
D|-----------4-4-4-4---------6-6-6-6-6---------------------------------------|
A|-6-6-6-6-----------4-4-4---------------------------------------------------|
E|----------------------------------------------------------x4---------------|


Chorus

G|---------------------------------------------------------------------------|
D|--------------------6-------6p4----------------------------6-------6p4-----|
A|-7------7p6-------6-------------------6h7------7p6-------6-----------------|
E|---------------------------------------------------------------------------|

Repeat.

| /  slide up
| \  slide down
| h  hammer-on
| p  pull-off
| ~  vibrato
| +  harmonic
| x  Mute note
===============================================================================

            
            
Suggest correction
Creating personal tab
Creating personal tab
You can edit any tab online and save it as your Personal.

You can edit, replace or remove any tab part or add personal notes – all changes will be seen only by you.

Personal tabs can be accessed anytime from any device, even offline.
Learn more »
Give kudos to tab author, rate the tab!
1 2 3 4 5
comments
print report bad tab
guest
You may want to rate the tab now too:
select rating
Wanna post a correction for this tab? Suggest correction