Oops, an error
Loading. Please wait.

She Wolf Falling To Pieces Acoustic Tab

14,386 views 48 this week
1 commentread comment
1 2 3 4 5
excellent!
x 4
add to favorites
launch autoscroll
font size
0
reset
how to read this tab
guitar tuner
Tab Pro tools
  • play this tab
  • loop segment
  • change instrument
  • show fretboard
  • metronome
Autoscroll
slow
fast
+/-
esc
set tempo
stop
Contributor
-------------------------------------------------------------------------------
                             She Wolf (Falling to Pieces) - David Guetta
-------------------------------------------------------------------------------
Tabbed by:StevieC_x32010
E-mail:silverthorn666@hotmail.co.uk

Tuning:standard (capo 3rd fret)

Ok this tab is in response to a cover of this song i found on youtube.
i seen this version and had to tab it for myself but so as not to be greedy,
i felt i should put it up here for you guys too :)

i would highly recommend watching this video to get a better idea of timing
and strumming pattern etc (but not essential)

http://www.youtube.com/watch?v=uQDubJ_2y8M

ok here is a list of chord shapes used:

    Em   Bm   D    A    F#m
e|--0----2----2----0----2---|
B|--0----3----3----2----2---|
G|--0----4----2----2----2---|
D|--2----4----0----2----4---|
A|--2----2---------0----4---|
E|--0-------------------2---|

Intro

  (Em)        (Bm)        (D)         (A)       
e|-------------------------------------------------|
B|------------------------------3-----------2-0----|
G|------0-0---------4-4------2----2-------------0--|
D|----------2----4------4--0--------0----2---------| X1
A|---2---------2-----------------------0-----------|
E|-0-----------------------------------------------|

Verse

  (Em)        (Bm)        (D)         (A)  
  "A shot in the dark..."
e|-------------------------------2---2----------------------------------|
B|-------------------3---3-----3---3---------2h-(3)p-(2)-0h-(2)p-(0)----|
G|-------0---0-----4---4-----2-------------2-------------------------2--|
D|-----2---2-----4---------0-------------2------------------------------|X1
A|---2---------2-----------------------0--------------------------------|
E|-0--------------------------------------------------------------------|

  (Em)        (Bm)        (D)         (A)
  "And where do i start..."
e|-------------------------------2---2----------------|
B|-------------------3---3-----3---3---------2---2----|
G|-------0---0-----4---4-----2-------------2---2------|
D|-----2---2-----4---------0-------------2------------|X3
A|---2---------2-----------------------0--------------|
E|-0--------------------------------------------------|

Pre-Chorus

  (D)         (Bm)       (F#m)       (A) 
  "You loved me..."
e|-------2-----------------------2--------------------|
B|-----3---3---------3-------------2---------2---2----|
G|---2-------2-----4---4-------------2-----2---2------|
D|-0-------------4-------4-----4---------2------------|X3
A|-------------2-------------4---------0--------------|
E|-------------------------2--------------------------|
 
  (D)         (Bm)       (F#m)       (A) 
  "What do you see in those yellow eyes? I'm falling to pieces"
e|-------2-----------------------2---------------0----|
B|-----3---3---------3-------------2---------2---2----|
G|---2-------2-----4---4-------------2-----2---2-2----|
D|-0-------------4-------4-----4---------2-------2----|X1
A|-------------2-------------4---------0---------0----|
E|-------------------------2--------------------------|
  
Now the song kicks into the chorus leading with (Em)
"Im falling to pieces" and chords are played for the rest of the song.

Here is all chords and lyrics:

Verse 

Em              Bm      D    A
A shot in the dark, a past lost in space
Em              Bm         D    A
And where do I start, the past and the chase
Em             Bm            D        A
You hunted me down, Like a wolf, a predator
Em             Bm            D        A
I felt like a deer in the light

Pre-Chorus

D         Bm        F#m        A
You loved me and I froze in time
D         Bm      F#m       A  
Hungry for that flesh of mine
D             Bm               F#m                    A
But I can't compete with the she-wolf, who has brought me to my knees
D            Bm              F#m                  A
What do you see in those yellow eyes? I'm falling to pieces

Chorus

Em          Em
I'm falling to pieces
D           D
Cause i'm falling to pieces
Em          Em
I'm falling to pieces

D           D

Verse 2

Em               Bm          D        A
Did she lie and wait, was I bait, to pull you in
Em                 Bm        D          A
The thrill of the kill, you feel, as a sin
Em               Bm        D   A
Alone with the wolves and now,now it seems
Em               Bm      D        A
I thought I was part of you

Pre-Chorus 2

D         Bm        F#m        A
You loved me and I froze in time
D         Bm      F#m       A  
Hungry for that flesh of mine
D             Bm               F#m                    A
But I can't compete with the she-wolf, who has brought me to my knees
D            Bm              F#m                  A
What do you see in those yellow eyes? I'm falling to pieces

Chorus 2

Em          Em
I'm falling to pieces
D           D
Cause i'm falling to pieces
Em          Em
I'm falling to pieces

D           D

Outro
one strum per chord

Em Bm D A 

Em

any comments are very welcome , good or bad :P

************************************

| /   slide up
| \   slide down
| h   hammer-on
| p   pull-off
| ~   vibrato
| +   harmonic
| x   Mute note
| b   Bend
| pb  Pre-bend
| br  Bend release
| pbr Pre-bend release
| brb Bend release bend

************************************
comments
print report bad tab
1 comment total.
0 reply
tini666 wrote on October 24 2012, 07:17 am

sounds very nice! even without capo

I want to post or [tab]
guest
You may want to rate the tab now too:
select rating
Please do not post tabs as comments. Select "correction" instead!