Oops, an error
Loading. Please wait.

Amber And Green chords

1,896 views 1 this week
2 commentsread comments
1 2 3 4 5
3 more votes to show rating
add to favorites
×
Save as Personal and add changes to this tab that will be seen only by you. Learn more ›
×
You can save this tab as Personal to edit and correct it or add notes. All changes will be seen only by you. Learn more »
launch autoscroll
font size
0
reset
transpose
0
reset
display chords
guitar tuner
edit
Autoscroll
slow
fast
+/-
esc
set tempo
stop
Author
Difficulty
Strumming
There is no strumming pattern for this song yet. and get +5 IQ
Amber & Green - David Hopkins

E	A	C#m
You can blow my mind
   A	    E	     C#m
So easy, so easy, so easy
E	      A		C#m
And though it might not show
  A           E            C#m		E A
I need you, I need you , I need you

E A    C#m       E   A    E
I show amber and you show green
E         A     C#m
I tell my story slow
           A                E                C#m	E  A
So you can hear it, you can hear it, you can hear it
E A    C#m      E    A    E
I show amber and you show green

E A C#m A E C#m

E       A       C#m    
You can blow my mind
	 A                E
When you see me, when you see me
		    C#m
It's like you don't see me

E A
Ooohh
C#m
You blow my mind
E A
Ooohh
C#m
You blow my mind
E A
Ooohh
C#m
You blow my mind

If there's an error or something, e-mail us at
hellfire.peninsula@yahoo.com. Thanks ^.^
by Tere and Jujay 10/15/07

            
            
Suggest correction
Creating personal tab
Creating personal tab
You can edit any tab online and save it as your Personal.

You can edit, replace or remove any tab part or add personal notes – all changes will be seen only by you.

Personal tabs can be accessed anytime from any device, even offline.
Learn more »
Give kudos to tab author, rate the tab!
1 2 3 4 5
comments
print report bad tab
2 comments total.
+1 reply
shaunathon 10 Mar 31, 2008 07:41 PM

Amber & Green - David Hopkins
Chorded By: Shaunathon Christopher Greer on 03/31/08

The other tabs (chord sheets) I've seen of this are just wrong, so I sat down and tried to figure it out and I think it is fairly accurate. Standard Tuning

-------------------------------------------------------------------------------------------------
All the chords used in this song:

E      A      C#m     A2*	G#m*   F#m*    B*     E6*    G#	    F#     E2*    D#
e---0------0-------0------0------0------0------0------0--------------------4------3----|
B---0------2-------5------0------0------0------0------0------9------7------5------4----|
G---1------2-------6------6------4------2------4------9------8------6------4------3----|
D---2------2-------6------7------6------4------4------9------10-----8------6------5----|
A---2------0-------4------7------6------4------2------7------11------------7------6----|
E---0---------------------5------4------2---------------------------9------------------|

*Variations used for this song of the actual chord

-------------------------------------------------------------------------------------------------

Intro: E

E A C#m
You can blow my mind

A2 G#m F#m
So easy, so easy, so easy

E A C#m
And though it might not show

A2 G#m F#m
I need you, I need you , I need you

E E A E A E

E C#m A C#m B E6
I show amber and you show green

E A C#m A2 G#m F#m

E A C#m
I tell my story slow

A2 G#m F#m
So you can hear it, you can hear it, you can hear it

E E A E A E

E C#m A C#m B E6
I show amber and you show green

E

E A C#m
You can blow my mind
A2 G#m
When you see me, when you see me
F#m E
It's like you don't see me

G# F# E2 D# (Or you can just play C#m through this section)
Ooohh
E
You blow my mind
G# F# E2 D# (Or you can just play C#m through this section)
Ooohh
E
You blow my mind
G# F# E2 D# (Or you can just play C#m through this section)
Ooohh
E
You blow my mind

-------------------------------------------------------------------------------------------------

If there's an error or something, e-mail me at
scgreer@iupui.edu

+1 reply
shaunathon 10 Mar 31, 2008 07:43 PM

Amber & Green - David Hopkins
Chorded By: Shaunathon Christopher Greer on 03/31/08

The other tabs (chord sheets) I've seen of this are just wrong, so I sat down and tried to figure it out and I think it is fairly accurate. Standard Tuning

-------------------------------------------------------------------------------------------------
All the chords used in this song:


E A C#m A2* G#m* F#m* B* E6* G# F# E2* D#
e---0------0-------0------0------0------0------0------0--------------------4------3----|
B---0------2-------5------0------0------0------0------0------9------7------5------4----|
G---1------2-------6------6------4------2------4------9------8------6------4------3----|
D---2------2-------6------7------6------4------4------9------10-----8------6------5----|
A---2------0-------4------7------6------4------2------7------11------------7------6----|
E---0---------------------5------4------2---------------------------9------------------|

*Variations used for this song of the actual chord

-------------------------------------------------------------------------------------------------

Intro: E

E A C#m
You can blow my mind

A2 G#m F#m
So easy, so easy, so easy

E A C#m
And though it might not show

A2 G#m F#m
I need you, I need you , I need you

E E A E A E

E C#m A C#m B E6
I show amber and you show green

E A C#m A2 G#m F#m

E A C#m
I tell my story slow

A2 G#m F#m
So you can hear it, you can hear it, you can hear it

E E A E A E

E C#m A C#m B E6
I show amber and you show green

E

E A C#m
You can blow my mind
A2 G#m
When you see me, when you see me
F#m E
It's like you don't see me

G# F# E2 D# (Or you can just play C#m through this section)
Ooohh
E
You blow my mind
G# F# E2 D# (Or you can just play C#m through this section)
Ooohh
E
You blow my mind
G# F# E2 D# (Or you can just play C#m through this section)
Ooohh
E
You blow my mind

-------------------------------------------------------------------------------------------------

If there's an error or something, e-mail me at
scgreer@iupui.edu

guest
You may want to rate the tab now too:
select rating
Wanna post a correction for this tab? Suggest correction