Oops, an error
Loading. Please wait.

Hit The Road Jack Bass Tab

4,120 views 1 this week
no commentswrite comment
1 2 3 4 5
please rate
add to favorites
launch autoscroll
font size
0
reset
guitar tuner
Autoscroll
slow
fast
+/-
esc
set tempo
stop
Help us to improve Ultimate-Guitar.com Take our survey!
×
Author
Difficulty
novice
------------------------------------------------------------------------------
	  Hit The Road Jack (cover) - David Johansen "Buster Poindexter"
-------------------------------------------------------------------------------

Tabbed By : bernie93
e-mail: dylanob93@hotmail.com

Tuning: standard

this song is fun and its a breeze on bass but nonetheless fun to play.
Check the song for timing and feel free to had your fills in the song.
Song goes well with a bit of swing.

Intro
G|-1------------------------------------------------------------------------------|
D|-----4---2---1------------------------------------------------------------------|
A|--------------------------------------------------------------------------------|
E|--------------------------------------------------------------------------------|

the main riff is slightly different with the timing of the D2 and D1 as well as the extra G0 at the end.

Riff
G|-1-----------0---------------------|
D|-----4---2--1----------------------|
A|-----------------------------------|
E|-----------------------------------|

Intro x2
Riff  x30
Intro x1
Riff  x Rest of the song


see?
easy

cheers
bernie
Suggest correction
Give kudos to tab author, rate the tab!
1 2 3 4 5
comments
print report bad tab
guest
You may want to rate the tab now too:
select rating
Wanna post a correction for this tab? Suggest correction