Oops, an error
Loading. Please wait.

Drop In The Bucket Tab

3,416 views 9 this week
no commentswrite comment
1 2 3 4 5
please rate
add to favorites
launch autoscroll
font size
0
reset
how to read this tab
guitar tuner
Autoscroll
slow
fast
+/-
esc
set tempo
stop
Help us to improve Ultimate-Guitar.com Take our survey!
×
Author
Difficulty
intermediate
-----------------------------------------------------------------
Drop In The Bucket (INTRO) - David Lee Roth
-----------------------------------------------------------------
Tabbed by: ikjetil
Email:


e|---------------------------------------------------------------|
B|---------------------------------------------------------------|
G|---------2--------------------------------------4-/4-----------|
D|-------2---2-4-4---2---2---4-4\2---4p2-4bp2-----4-/4-----------|
A|-4p2h4-----2-------2---2---4-4\2---4p2------4-2----------------|
E|-----------------2---2---2-------2-----------------------------|

e|---------------------------------------------------------------|
B|---------------------------------/7-7-5-4----------------------|
G|---------------------------------/6-6-4-4-6--------------------|
D|-4\2-4-4p2---2---2---4-4\2---4p2--------4-4--------------------|
A|-----4-4p2---2---2---4-4\2---4p2-------------------------------|
E|-----------2---2---2-------2-----------------------------------|

e|---------------------------------------------------------------|
B|---------------------------------------------------------------|
G|---------------------------------------4-/4--------------------|
D|-2-4-4p2---2---2---4-4p2---4p2-4b2-----4-/4--------------------|
A|-2-4-4p2---2---2---4-------4p2-----4-2-------------------------|
E|---------2---2---2-------2-------------------------------------|

e|---------------------------------------------------------------|
B|-------------------/7-7p5-4------------------------------------|
G|-------------------/6-6p4-4-6-6-4-2-1--------------------------|
D|-2-4-4p2---2---2------------6-4-4-4-2--------------------------|
A|-2-4-4p2---2---2-----------------------------------------------|
E|---------2---2---2---------------------------------------------|


Tablature Legend
----------------
 h   - hammer-on
 p   - pull-off
 b   - bend
 /\  - slide into or out of (from/to "nowhere")
Suggest correction
Give kudos to tab author, rate the tab!
1 2 3 4 5
comments
print report bad tab
guest
You may want to rate the tab now too:
select rating
Wanna post a correction for this tab? Suggest correction