Oops, an error
Loading. Please wait.

Its Showtime tab

version 1
version 1

Whole song

Interactive

1,760 views 60 this week
no commentswrite comment
1 2 3 4 5
1 last vote to show rating
add to favorites
×
Save as Personal and add changes to this tab that will be seen only by you. Learn more ›
×
You can save this tab as Personal to edit and correct it or add notes. All changes will be seen only by you. Learn more »
launch autoscroll
font size
0
reset
how to read this tab
guitar tuner
edit
Autoscroll
slow
fast
+/-
esc
set tempo
stop
-------------------------------------------------------------------------------
                             It's Showtime! - David Lee Roth
-------------------------------------------------------------------------------
Tabbed by: Jacob Zirkin

Website: Youtube.com/user/imyussy

Written & Played By: Jason Becker

Tuning: Half Step Down

************************************

| /     slide up
| \     slide down
| h     hammer-on
| p     pull-off
| ~     vibrato
| +     harmonic
| x     Mute note
| ph    pinch harmonic
| b     Bend whole step
| b1/2  Bend half step
| db    Divebomb with whammy bar
| ^     Lift up whammy bar

************************************


Intro:


e|----------------------5---------------------------------------------------------5----------|
B|----------------------5---------------------------------------------------------5----------|
G|----------2-0-------------------------------------------------------2-0--------------------|
D|------------------------2-5----7---5---4---2-----2-5---4-7------------------------2-5------|
A|--0-0-3-0-----3-4-0-0-------0----0---0---0---0-3-----5-----0-0-3-0------3-4-0-0-------0----|
E|-------------------------------------------------------------------------------------------|

e|-----------------------------------------------5-------------------------------------------|
B|-----------------------------------------------5-------------------------------------------|
G|-----------------------------------2-0-----------------------------------------------------|
D|-7---5---4---2-----2-5-0--------------------------2-5----7---5---4---2-----2-5---4-7-------|
A|---0---0---0---0-3--------0-0-3-0-----3-4-0-0---------0----0---0---0---0-3-----5-----------|
E|-------------------------------------------------------------------------------------------|

e|----------------------5---------------------------------------------------------5----------|
B|----------------------5---------------------------------------------------------5----------|
G|----------2-0-------------------------------------------------------2-0--------------------|
D|------------------------2-5----7---5---4---2-----2-5---4-7------------------------2-5------|
A|--0-0-3-0-----3-4-0-0-------0----0---0---0---0-3-----5-----0-0-3-0------3-4-0-0-------0----|
E|-------------------------------------------------------------------------------------------|

e|-----------------------------------------------5-------------------------------------------|
B|-----------------------------------------------5---------------------------------3-4-5-----|
G|------------------------------------2-0------------------------------------------2-3-4-----|
D|-7---5---4---2-----2-5--4-7-------------------------2-5----7---5---4---2-----2-5-----------|
A|---0---0---0---0-3----5-----0-0-3-0-----3-4-0-0---------0----0---0---0---0-3---------------|
E|-------------------------------------------------------------------------------------------|

Verse #1:


e|-------------------------------------------------------------10-10-------------------------|
B|-------------------------------------------------------------10-10-------------------------|
G|-------------------------------9-7-----------9-8-7----------------------------------7-8-9--|
D|-------------------------7-8-9-9-7---5-6-7-8-9-8-7-0-0-0-0-0---x---7---7---7-7--7-7-7-8-9--|
A|-----------------------------------7---------------------------------5---4---4-------------|
E|-0-0-0-0-0-0-0-0-0-0-0-0---------------------------------------------------7----7-5--------|

e|-------------------------------------------------------------10-10-------------------------|
B|-------------------------------------------------------------10-10-------------------------|
G|-------------------------------9-7-----------9-8-7------------------------------------5-7--|
D|-------------------------7-8-9-9-7---5-6-7-8-9-8-7-0-0-0-0-0---x---7---7---7-7--7-7-7-5-7--|
A|-----------------------------------7---------------------------------5---4---4--------3-5--|
E|-0-0-0-0-0-0-0-0-0-0-0-0---------------------------------------------------7----7-5--------|

Chorus #1:


e|-------------------------------------------------------------------------------------------|
B|-------------------------------------------------------------------------------------------|
G|---------4---------------------------4-----------------------------------------------------|
D|---4-5-6---6-5-4---4---2-4-----4-5-6---6-5-4---4---2-4------------2------------------------|
A|-4---------------7---4-----2--4--------------7---4-----4----2-3-4---4-3-2---2---0-2--------|
E|----------------------------------------------------------2---------------5---2-----0------|

e|-------------------------------------------------------------------------------------------|
B|-------------------------------------------------------------------------------------------|
G|------------------------------7(7)-5(5)-7(7)-5(5)-7(7)-5(5)-7(7)-(6)6-(5)5-(4)4-(2)2-------|
D|---------2--------------------7(7)-5(5)-7(7)-5(5)-7(7)-5(5)-7(7)-(6)6-(5)5-(4)4-(2)2-------|
A|---2-3-4---4-3-2---2---0-2----5(5)-3(3)-5(5)-3(3)-5(5)-3(3)-5(5)-(4)4-(3)3-(2)2-(0)0-------|
E|-2---------------5---2-----2---------------------------------------------------------------|

e|-------------------------------------------------------------------------------------------|
B|-------------------------------------------------------------------------------------------|
G|-(4)4-(2)2--9-9-7-7-9----------------------------------------------------------------------|
D|-(4)4-(2)2--9-9-7-7-9----------------------------------------------------------------------|
A|-(2)2-(0)0--7-7-5-5-7----------------------------------------------------------------------|
E|-------------------------------------------------------------------------------------------|

e|----------------------5---------------------------------------------------------5----------|
B|----------------------5---------------------------------------------------------5----------|
G|----------2-0-------------------------------------------------------2-0--------------------|
D|------------------------2-5----7---5---4---2-----2-5---4-7------------------------2-5------|
A|--0-0-3-0-----3-4-0-0-------0----0---0---0---0-3-----5-----0-0-3-0------3-4-0-0-------0----|
E|-------------------------------------------------------------------------------------------|

e|-----------------------------------------------5-------------------------------------------|
B|-----------------------------------------------5-------------------------------------------|
G|------------------------------------2-0----------------------------------------------------|
D|-7---5---4---2-----2-5--4-7-------------------------2-5----7---5---4---2-----2-5---4-7-----|
A|---0---0---0---0-3----5-----0-0-3-0-----3-4-0-0---------0----0---0---0---0-3-----5---------|
E|-------------------------------------------------------------------------------------------|

e|----------------------5--------------------------------------------------------------------|
B|----------------------5------------------------------3-4-5---------------------------------|
G|----------2-0----------------------------------------2-3-4---------------------------------|
D|------------------------2-5----7---5---4---2-----2-5---------------------------------------|
A|--0-0-3-0-----3-4-0-0-------0----0---0---0---0-3-------------------------------------------|
E|-------------------------------------------------------------------------------------------|

Verse #2:


e|-------------------------------------------------------------10-10-------------------------|
B|-------------------------------------------------------------10-10-------------------------|
G|-------------------------------9-7-----------9-8-7----------------------------------7-8-9--|
D|-------------------------7-8-9-9-7---5-6-7-8-9-8-7-0-0-0-0-0---x---7---7---7-7--7-7-7-8-9--|
A|-----------------------------------7---------------------------------5---4---4-------------|
E|-0-0-0-0-0-0-0-0-0-0-0-0---------------------------------------------------7----7-5--------|

e|-------------------------------------------------------------10-10-------------------------|
B|-------------------------------------------------------------10-10-------------------------|
G|-------------------------------9-7-----------9-8-7------------------------------------5-7--|
D|-------------------------7-8-9-9-7---5-6-7-8-9-8-7-0-0-0-0-0---x---7---7---7-7--7-7-7-5-7--|
A|-----------------------------------7---------------------------------5---4---4--------3-5--|
E|-0-0-0-0-0-0-0-0-0-0-0-0---------------------------------------------------7----7-5--------|

Chorus #2:


e|-------------------------------------------------------------------------------------------|
B|-------------------------------------------------------------------------------------------|
G|---------4---------------------------4-----------------------------------------------------|
D|---4-5-6---6-5-4---4---2-4-----4-5-6---6-5-4---4---2-4------------2------------------------|
A|-4---------------7---4-----2--4--------------7---4-----4----2-3-4---4-3-2---2---0-2--------|
E|----------------------------------------------------------2---------------5---2-----0------|

e|-------------------------------------------------------------------------------------------|
B|-------------------------------------------------------------------------------------------|
G|------------------------------7(7)-5(5)-7(7)-5(5)-7(7)-5(5)-7(7)-(6)6-(5)5-(4)4-(2)2-------|
D|---------2--------------------7(7)-5(5)-7(7)-5(5)-7(7)-5(5)-7(7)-(6)6-(5)5-(4)4-(2)2-------|
A|---2-3-4---4-3-2---2---0-2----5(5)-3(3)-5(5)-3(3)-5(5)-3(3)-5(5)-(4)4-(3)3-(2)2-(0)0-------|
E|-2---------------5---2-----2---------------------------------------------------------------|

e|-------------------------------------------------------------------------------------------|
B|-------------------------------------------------------------------------------------------|
G|-(4)4-(2)2--9-9-7-7-9----------------------------------------------------------------------|
D|-(4)4-(2)2--9-9-7-7-9----------------------------------------------------------------------|
A|-(2)2-(0)0--7-7-5-5-7----------------------------------------------------------------------|
E|-------------------------------------------------------------------------------------------| 

e|----------------------5---------------------------------------------------------5----------|
B|----------------------5---------------------------------------------------------5----------|
G|----------2-0-------------------------------------------------------2-0--------------------|
D|------------------------2-5----7---5---4---2-----2-5---4-7---------------------------------|
A|--0-0-3-0-----3-4-0-0-------0----0---0---0---0-3-----5-----0-0-3-0------3-4-0-0------------|
E|-------------------------------------------------------------------------------------------|

e|-------------------------------------------------------------------------------------------|
B|-------------------------------------------------------------------------------------------|
G|-------------------------------------------------------------------------------------------|
D|-----4-5-4---5-4----4-----------4----------------------------------------------------------|
A|-5-7-------7-----7----7-5-4-5-7---7-5-4----------------------------------------------------|
E|----------------------------------------7-5-3b1/2------------------------------------------|

e|----------------------5---------------------------------------------------------5----------|
B|----------------------5---------------------------------------------------------5----------|
G|----------2-0-------------------------------------------------------2-0--------------------|
D|------------------------2-5----7---5---4---2-----2-5---4-7------------------------2-5------|
A|--0-0-3-0-----3-4-0-0-------0----0---0---0---0-3-----5-----0-0-3-0------3-4-0-0-------0----|
E|-------------------------------------------------------------------------------------------|

e|-------------------------------------------------------------------------------------------|
B|-------------------------------------------3-----------------------------------------------|
G|-----------------------2---------2---------2-0db-------------------------------------------|
D|-7---5---4---2-----2-5-0-----2-5-0-----2-5-0-----------------------------------------------|
A|---0---0---0---0-3-------0-3-------0=3-----------------------------------------------------|
E|-------------------------------------------------------------------------------------------|

Guitar Solo:


e|---------------------------------------12-10-16-15\14--------------------------------------|
B|----------------------5\3-3------14\12-----------------------------------------------------|
G|---------------------------------------13-11-16-15\14--------------------------------------|
D|---------2p0-----4/6--6\4---4/14-14\12------------------------2p0--------------------------|
A|-------------4/5--------------------------------------------------4p3p2--------------------|
E|-0-0-3/4----------------------------------------------0-0-3/4-----------5p4p3p2p0----------|

e|------12-0----10-0---9-0---7-0---5-0----3/4------------------------------------------------|
B|-------------------------------------------------------------------------------------------|
G|-2/11------11------9-----7-----6-----4-3/4-------------------------------------------------|
D|-------------------------------------------------------------------------------------------|
A|-------------------------------------------------------------------------------------------|
E|-------------------------------------------------------------------------------------------|

e|---------------------------------------12-10-16-15\14--------------------------------------|
B|----------------------5\3-3------14\12-----------------------------------------------------|
G|---------------------------------------13-11-16-15\14--------------------------------------|
D|---------2p0-----4/6--6\4---4/14-14\12------------------------2p0--------------------------|
A|-------------4/5--------------------------------------------------4p3p2--------------------|
E|-0-0-3/4----------------------------------------------0-0-3/4-----------5p4p3p2p0----------|

e|------12-0----10-0---9-0---7-0---5-0----3/4--5-6-5-4-5-6-5/4-----6/5-4-----2---------------|
B|-----------------------------------------------------------------------------2h5-----------|
G|-2/11------11------9-----7-----6-----4-3//4--5-6-5-4-5-6-5/4--2/6//5-4-2h3-----------------|
D|-------------------------------------------------------------------------------------------|
A|-------------------------------------------------------------------------------------------|
E|-------------------------------------------------------------------------------------------|

e|-2-5-4-2-4-2---4-2---2-----------2---------------------------------------------------------|
B|-------------5-----5---5-4-2-4-5---5-4-5-4-2-4-2---4-2---2-----------2---------------------|
G|-------------------------------------------------5-----5---5-4-2-4-5---5-4-5-4---4---2-----|
D|-------------------------------------------------------------------------------4---4-------|
A|-------------------------------------------------------------------------------------------|
E|-------------------------------------------------------------------------------------------|

e|-------------------------------------------------------------------------------------------|
B|-------------5-----------------------------------------------------------------------------|
G|-4h5h6\4-2-----4-4b(4)p2---2h3-----------------------------------------------2~------------|
D|-----------4-------------4-----4p2-------------------2ph-4ph-2ph-4ph-2ph-4ph---------------|
A|-----------------------------------4p3p2p1-------------------------------------------------|
E|-------------------------------------------3p2p1p0db---------------------------------------|

e|-----------------------------4-5-6-7-0-----------------------------------------------------|
B|---------------------4-5-6-7-------------------------------------------10-13-15------------|
G|-3-4-5-6-5-4-3-4-5-6----------------------------8---------------8-9-12---------------------|
D|----------------------------------------7-10-12---12-10-7-10-12----------------------------|
A|-------------------------------------------------------------------------------------------|
E|-------------------------------------------------------------------------------------------|

e|-13----------------11-12-15------------------------------/15p10----------------------------|
B|----15-13-10-13-15----------15b1/2(15)p13-15p13-----------------13----------------------13-|
G|------------------------------------------------14-12--------------14p12----------12-14----|
D|-----------------------------------------------------14------------------14-12h14----------|
A|-------------------------------------------------------------------------------------------|
E|-------------------------------------------------------------------------------------------|

e|-10--17p12---------------------------12--20p15----------15--22p17----------17--------------|
B|-----------15---------------------15-----------17----17-----------20----20----20b(20)-20b--|
G|--------------17p14---------14-17-----------------19-----------------21--------------------|
D|--------------------17-14h17---------------------------------------------------------------|
A|-------------------------------------------------------------------------------------------|
E|-------------------------------------------------------------------------------------------|
 
Chorus #3:


e|-------------------------------------------------------------------------------------------|
B|-------------------------------------------------------------------------------------------|
G|---------4---------------------------4-----------------------------------------------------|
D|---4-5-6---6-5-4---4---2-4-----4-5-6---6-5-4---4---2-4------------2------------------------|
A|-4---------------7---4-----2--4--------------7---4-----4----2-3-4---4-3-2---2---0-2--------|
E|----------------------------------------------------------2---------------5---2-----0------|

e|-------------------------------------------------------------------------------------------|
B|-------------------------------------------------------------------------------------------|
G|------------------------------7(7)-5(5)-7(7)-5(5)-7(7)-5(5)-7(7)-(6)6-(5)5-(4)4-(2)2-------|
D|---------2--------------------7(7)-5(5)-7(7)-5(5)-7(7)-5(5)-7(7)-(6)6-(5)5-(4)4-(2)2-------|
A|---2-3-4---4-3-2---2---0-2----5(5)-3(3)-5(5)-3(3)-5(5)-3(3)-5(5)-(4)4-(3)3-(2)2-(0)0-------|
E|-2---------------5---2-----2---------------------------------------------------------------|

e|-------------------------------------------------------------------------------------------|
B|-------------------------------------------------------------------------------------------|
G|-(4)4-(2)2--9-9-7-7-9----------------------------------------------------------------------|
D|-(4)4-(2)2--9-9-7-7-9----------------------------------------------------------------------|
A|-(2)2-(0)0--7-7-5-5-7----------------------------------------------------------------------|
E|-------------------------------------------------------------------------------------------|

e|----------------------5---------------------------------------------------------5----------|
B|----------------------5---------------------------------------------------------5----------|
G|----------2-0-------------------------------------------------------2-0--------------------|
D|------------------------2-5----7---5---4---2-----2-5---4-7---------------------------------|
A|--0-0-3-0-----3-4-0-0-------0----0---0---0---0-3-----5-----0-0-3-0------3-4-0-0------------|
E|-------------------------------------------------------------------------------------------|

e|-------------------------------------------------------------------------------------------|
B|-------------------------------------------------------------------------------------------|
G|-------------------------------------------------------------------------------------------|
D|-------4-----------------------4-----------------------------------------------------------|
A|-4-5-7---7-5-4-----------4-5-7---7-5-4-5-7-------------------------------------------------|
E|---------------7-5-4-5-7------------------3b1/2--------------------------------------------|

e|----------------------5---------------------------------------------------------5----------|
B|----------------------5---------------------------------------------------------5----------|
G|----------2-0-------------------------------------------------------2-0--------------------|
D|------------------------2-5----7---5---4---2-----2-5---4-7---------------------------------|
A|--0-0-3-0-----3-4-0-0-------0----0---0---0---0-3-----5-----0-0-3-0------3-4-0-0------------|
E|-------------------------------------------------------------------------------------------|

e|-5--7---8---10-----------------------------------------------------------------------------|
B|-8b-10b-11b-13b----------------------------------------------------------------------------|
G|-------------------------------------------------------------------------------------------|
D|-------------------------------------------------------------------------------------------|
A|-------------------------------------------------------------------------------------------|
E|-------------------------------------------------------------------------------------------|

e|----------------------5---------------------------------------------------------5----------|
B|----------------------5---------------------------------------------------------5----------|
G|----------2-0-------------------------------------------------------2-0--------------------|
D|------------------------2-5----7---5---4---2-----2-5---4-7------------------------2-5------|
A|--0-0-3-0-----3-4-0-0-------0----0---0---0---0-3-----5-----0-0-3-0------3-4-0-0-------0----|
E|-------------------------------------------------------------------------------------------|

e|-------------------------------------------------------------------------------------------|
B|-------------------------------------------------------------------------------------------|
G|-------------------------------------------------------------------------------------------|
D|-7---5---4---2-----2-5--4-7---------------------------------2-5---4-7----------------------|
A|---0---0---0---0-3----5-----------------------------------3-----5--------------------------|
E|----------------------------5-2-2-3-4-5-2-2-3-4-5-2-2-3-4----------------------------------|

e|----------------------5--------------------------------------------------------------------|
B|----------------------5-------------------------------3--------3--------3------------------|
G|----------2-0-----------------------------------------2--------2--------2--5+db^-----------|
D|------------------------2-5----7---5---4---2-----2-5--0---2-5--0---2-5--0------------------|
A|--0-0-3-0-----3-4-0-0-------0----0---0---0---0-3--------3--------3-------------------------|
E|-------------------------------------------------------------------------------------------|

e|--------------------------------14---5-7-9-7-9-7-5-----------5-----------------------------|
B|--------------------------------12-----------------8-7-5-6-8---8-7-5-----------------------|
G|--------------------------------12-----------------------------------8-7-5-7-8-7-5-7-5-4---|
D|-2-5---7---5---4---2------------11-------------------------------------------------------7-|
A|-----0---0---0---0---0-5-3-----------------------------------------------------------------|
E|---------------------------5-3-------------------------------------------------------------|

e|-------------------------------------------------------------------------------------------|
B|-------------------------------------------------------------------------------------------|
G|---------4-5-4-----------------------------------------------5+^---2-----------------------|
D|-5-4-5-7-------7-5-4---4-5-4---------------------------------------2-----------------------|
A|---------------------7-------7-5-3-5-7-5-3-----------3-5-----------0-----------------------|
E|-------------------------------------------7-5-3-5-7-----0db-------------------------------|




            
            
Suggest correction
Creating personal tab
Creating personal tab
You can edit any tab online and save it as your Personal.

You can edit, replace or remove any tab part or add personal notes – all changes will be seen only by you.

Personal tabs can be accessed anytime from any device, even offline.
Learn more »
Give kudos to tab author, rate the tab!
1 2 3 4 5
comments
print report bad tab
guest
You may want to rate the tab now too:
select rating
Wanna post a correction for this tab? Suggest correction