Oops, an error
Loading. Please wait.

Just A Gigolo Bass

version 1
version 1

Whole song

Interactive

39,325 views 63 this week
no commentswrite comment
1 2 3 4 5
x 6
add to favorites
launch autoscroll
font size
0
reset
guitar tuner
Autoscroll
slow
fast
+/-
esc
set tempo
stop
Author
Tuning
E A D G
INTRO:
G|-----5--8--5-8-------8--8------5--8--5-8-------------|
D|--6-------------8-8----------6-----------8-8---------|
A|---------------------------------------------6-6-----|
E|-----------------------------------------------------|





VERSE:
G|-----5--8--5-8----5--8--5-8----------------8------|
D|---6------------6------------6-6--9-9-8-8----8----|
A|--------------------------------------------------|
E|--------------------------------------------------|
   I'm just a gigolo...
G|----------8-8-----8-6-5--------------|
D|-----8-8------8-8-------8--6-3-------|
A|-6-6---------------------------6-3---|
E|-------------------------------------|
  paid for every dance..

G|-----------6-3--------5----3----------------------------|
D|-------3-4-----4-3-3----3----6-3------------------------|
A|---3-6---------------------------4-----7--7--6--6-8--8--|
E|-4---------------------------------6-6------------------|
  there would come a day..

G|----------------------|
D|------------6-5-------|
A|-------6-6------8-6---|
E|--6-6-----------------|
  life goes on..

Verse..


before chorus:
G|-------------------------------|
D|-------------------------------|
A|--------7-7--6--6------8-------|
E|--6--6-------------------6-----|
  when the end comes..




CHORUS:
G|----5--8--5-8-------------------------5--|
D|--6-----------6-5-4-3-----------3-5-7----|
A|-------------------------0--3-5----------|
E|-----------------------1-----------------|
  cuz I ain't got nobody..


G|----5-6-7-8--6-5-------------------------|
D|-8---------------8--6--3-------------3---|
A|-------------------------6--3---3--6-----|
E|------------------------------4----------|
  cares for me...

G|----5--8--5-8-------------------------5--|
D|--6-----------6-5-4-3-----------3-5-7----|
A|-------------------------0--3-5----------|
E|-----------------------1-----------------|
   I'm so sad and lonely...

G|----------------------------8--6-5-------|
D|-8-8-------------------------------8-----|
A|-----8-8------8----6-6-6-6---------------|
E|---------6-6-----6-----------------------|
  sad and lonely..

G|-------------------------------------------------------|
D|--------------------------------3-6--3-6-----3--6------|
A|----3--6--3-6----3--6--3-6----4-----------4--------6---|
E|--4------------4--------------------------------------0|
  (Sad and lonesome,          all of the time)

G|-----------------------------------------|
D|-----------------------------------------|
A|----0--3--0-3----0-3--0--1---------------|
E|--1-----------1--------------------------|
                        ( STOP / se-de-bop )

G|----5--8--5-8-------------------------5--|
D|--6-----------6-5-4-3-----------3-5-7----|
A|-------------------------0--3-5----------|
E|-----------------------1-----------------|
  I ain't got nobody...


G|----5-6-7-8--6-5-------------------------|
D|-8---------------8--6--3-------------3---|
A|-------------------------6--3---3--6-----|
E|------------------------------4----------|
 cares for me...



SAX SOLO:
G|------------------------------------------------|
D|-----------------------------------5-5----------|
A|-----3--6--3-6---------------3--3-------3-------|
E|---4-----------4-4--3-2-1-1----------------1----|



G|----------------3--------------------------------------|
D|------3-----1-1---1-------------3---6---3--------------|
A|--1-1----1---------------3---6--------------6---3------|
E|----------------------4--------------------------------|


G|----------------------------------------------|
D|-----------------------------------3--3---3---|
A|-----3--6--3-6----------------3--3-------3--2-|
E|---4-----------4-4--3--2-1-1------------------|


G|-----------3-3---3--------------8-6-5-----|
D|------3--3-----3----1--1--8--8--------8---|
A|-1-1--------------------------------------|
E|------------------------------------------|

G|------------------------------------------------|
D|-----------------------------------3-3----------|
A|-----3--6--3-6---------------3--3-------3-------|
E|---4-----------4-4--3--2-1-1----------------1---|

G|--------------------------------|
D|-------------3-4-5-6------------|
A|----3-4-5-6---------------------|
E|--6-----------------------------|
                        (Humala bebuhla zeebuhla bop)
CHORUS:
G|----5--8--5-8--------------------------5--|
D|--6------------6-5-4-3-----------3-5-7----|
A|--------------------------0--3-5----------|
E|------------------------1-----------------|
  I ain't got nobody


G|----5-6-7-8--6-5-------------------------|
D|-8---------------8--6--3-------------3---|
A|-------------------------6--3---3--6-----|
E|------------------------------4----------|
 cares for me..

G|----5--8--5-8-------------------------5--|
D|--6-----------6-5-4-3-----------3-5-7----|
A|-------------------------0--3-5----------|
E|-----------------------1-----------------|
  I'm so sad and lonely..


G|--------------------------------------8--6--5-----|
D|--8-6-5-6-------------8---------8--8-----------8--|
A|--------------5---8--------6-6--------------------|
E|-----------6--------------------------------------|
          (...take a chance with me? 'cause i ain't so bad)


G|-------------------------------------------------------|
D|--------------------------------3-6--3-6-----3--6------|
A|----3--6--3-6----3--6--3-6----4-----------4--------4--0|
E|--4------------4---------------------------------------|
   (sax / Been a lonely soul)

G|-------------------------------------------------|
D|-------------------------------------------3-4-5-|
A|----0--3--0-3-----0-3--0-3-----3-4-5----6--------|
E|--1-----------1-------------6--------------------|

G|----5--8--5-8-------------------------5--|
D|--6-----------6-5-4-3-----------3-5-7----|
A|-------------------------0--3-5----------|
E|-----------------------1-----------------|


G|----5-6-7-8--6-5--------------------|
D|-8---------------8--6-6-5-4-3-3-----|
A|--------------------------------3--2|
E|------------------------------------|


G|---5-6-7-8-6-5---8------------5--8-6-----5---------|
D|-8-------------8-----6----6-8--------6-8-----------|
A|--------------------------------------------6------|
E|----------------------------------------------4----|
Suggest correction
comments
print report bad tab
guest
You may want to rate the tab now too:
select rating
Wanna post a correction for this tab? Suggest correction