Oops, an error
Loading. Please wait.

Little Texas Tab

399 views 1 this week
no commentswrite comment
1 2 3 4 5
please rate
add to favorites
launch autoscroll
font size
0
reset
how to read this tab
guitar tuner
Tab Pro tools
  • play this tab
  • loop segment
  • change instrument
  • show fretboard
  • metronome
×
Best way to learn
"Little Texas"
Autoscroll
slow
fast
+/-
esc
set tempo
stop
Song: Little Texas
Artist: David Lee Roth
Written by: John Lowery,Bob Marlette
Lyrics by: David Lee Roth
Guitarst: John Lowery
Rateing: 4 of 5  Solo: 5 of 5
Album: DLR Band
tabed by: Per "Pogo,Mw Gacy" Stenberg
fanta98@hotmail.com or pogo@pianotabs.net


h= hammer-on
p= pull-of
T= tap with the top of your finger or pick
/= slide down
\= slide up
.= palm muted
~= vibration

I love this song... Just pick up an acoustic guitar and start playing
this country-blues-rock riffs... John Lowery does a good job on this song 
and the solo is the best I've heard...


Intro/Verse
(Clean Guitar)

---------------------------------------------------------------
----2-5-4-----------2-5-4--6/8----2-5-4-----------2-5-4--8/10--
----2-5-4-----------2-5-4--5/7----2-5-4-----------2-5-4--7/9---
----2-5-4-----------2-5-4---------2-5-4-----------2-5-4--------
----------3h4---------------------------3h4--------------------
-0------------3--0-------------0------------3--0---------------


---------------------------------------------------------------
----2-5-4-----------2-5-4--6/8----2-5-4-----------2-5-4--8/10--
----2-5-4-----------2-5-4--5/7----2-5-4-----------2-5-4--7/9---
----2-5-4-----------2-5-4---------2-5-4-----------2-5-4--------
----------3h4---------------------------3h4--------------------
-0------------3--0-------------0------------3--0---------------


Main Riff
(Dist Guitar)

---------------------------------------------------------------
----2-5-4-----------2-5-4--6/8----2-5-4-----------2-5-4--8/10--
----2-5-4-----------2-5-4--5/7----2-5-4-----------2-5-4--7/9---
----2-5-4-----------2-5-4---------2-5-4-----------2-5-4--------
----------3h4---------------------------3h4--------------------
-0------------3--0-------------0------------3--0---------------


----------------------------------------------------------------------
----2-5-4-----------2-5-4----------------2-5-4-----------2-5-4--9/10--
----2-5-4-----------2-5-4--5h6p5h6p5-----2-5-4-----------2-5-4--7/9---
----2-5-4-----------2-5-4----------------2-5-4-----------2-5-4--------
----------3h4----------------------------------3h4--------------------
-0------------3--0--------------------0------------3--0---------------


Verse 2
(Clean Guitar)

---------------------------------------------------------------------
----2-5-4-----------2-5-4--6/8----2-5-4-----------2-5-4--5/6-5/6-5/6-
----2-5-4-----------2-5-4--5/7----2-5-4-----------2-5-4--4/5-4/5-4/5-
----2-5-4-----------2-5-4---------2-5-4-----------2-5-4--------------
----------3h4---------------------------3h4--------------------------
-0------------3--0-------------0------------3--0---------------------


---------------------------------------------------------------
----2-5-4-----------2-5-4--6/8----2-5-4-----------2-5-4--8/10--
----2-5-4-----------2-5-4--5/7----2-5-4-----------2-5-4--7/9---
----2-5-4-----------2-5-4---------2-5-4-----------2-5-4--------
----------3h4---------------------------3h4--------------------
-0------------3--0-------------0------------3--0---------------


Pre-Chours   (Hit each note 4 times  *=Hit one time)
(Dist Guitar)

----------------------
----------------------
-10--9--7--*5--*7--*7-
-10--9--7--*5--*7--*9-
-8---7--5--*3--*5--*7-
----------------------


Chorus  (Lead Guitar)
(Dist Guitar)

-----------------------------------
-----------------------------------
-----------------------------------
-9---8---7---5/7---9---8---7---5/7-
-7---6---5---3/5---7---6---5---3/5-
-----------------------------------


Chorus  (Rhythm Guitar)
(Dist Guitar)

-------------------
-------------------
-9-9-9-9-9-9-9-9-9-
-9-9-9-9-9-9-9-9-9-
-7-7-7-7-7-7-7-7-7-
-------------------


Main Riff
(Dist Guitar)

---------------------------------------------------------------------
----2-5-4-----------2-5-4--6/8----2-5-4-----------2-5-4--5/6-5/6-5/6-
----2-5-4-----------2-5-4--5/7----2-5-4-----------2-5-4--4/5-4/5-4/5-
----2-5-4-----------2-5-4---------2-5-4-----------2-5-4--------------
----------3h4---------------------------3h4--------------------------
-0------------3--0-------------0------------3--0---------------------


Verse 3
(Clean Guitar)

---------------------------------------------------------------------
----2-5-4-----------2-5-4--6/8----2-5-4-----------2-5-4--5/6-5/6-5/6-
----2-5-4-----------2-5-4--5/7----2-5-4-----------2-5-4--4/5-4/5-4/5-
----2-5-4-----------2-5-4---------2-5-4-----------2-5-4--------------
----------3h4---------------------------3h4--------------------------
-0------------3--0-------------0------------3--0---------------------


---------------------------------------------------------------
----2-5-4-----------2-5-4--6/8----2-5-4-----------2-5-4--8/10--
----2-5-4-----------2-5-4--5/7----2-5-4-----------2-5-4--7/9---
----2-5-4-----------2-5-4---------2-5-4-----------2-5-4--------
----------3h4---------------------------3h4--------------------
-0------------3--0-------------0------------3--0---------------


Pre-Chours   
(Dist Guitar)

----------------------
----------------------
-10--9--7--*5--*7--*7-
-10--9--7--*5--*7--*9-
-8---7--5--*3--*5--*7-
----------------------


Chorus  (Lead Guitar)
(Dist Guitar)

-----------------------------------
-----------------------------------
-----------------------------------
-9---8---7---5/7---9---8---7---5/7-
-7---6---5---3/5---7---6---5---3/5-
-----------------------------------


Chorus  (Rhythm Guitar)
(Dist Guitar)

-------------------
-------------------
-9-9-9-9-9-9-9-9-9-
-9-9-9-9-9-9-9-9-9-
-7-7-7-7-7-7-7-7-7-
-------------------


Solo
(Dist Guitar)
The ending is to hard to tab...

-------------------------------12^-10-12-10----------10-------------
------------------------3-5-----------------12-12-12----12-11-10----
-4-2-4-2-4-2-2~-4-2-4-2-----4------------------------------------12-
--------------------------------------------------------------------
--------------------------------------------------------------------
--------------------------------------------------------------------


--------------------------------------------------------------------------------
-10-----------------------------------------------------------------------------
----12-9-----------------------------------------------------------------9-10-12
---------12-9-------------------------------------------9-10-12-9-10-12---------
--------------12-10-7-------------------9-10-12-9-10-12-------------------------
-----------------------*9-10-12-9-10-12-----------------------------------------
*=alternetive picking


------------
------------
-9-10-12/14~
------------
------------
------------


Solo (Rhymth Guitar)
(Dist Guitar)

-----------------------
-----------------------
-----------------------
-9-9-9-9-9-9-9-9-9-9-9-
-9-9-9-9-9-9-9-9-9-9-9-
-7-7-7-7-7-7-7-7-7-7-7-


Verse 4
(Clean Guitar)

---------------------------------------------------------------
----2-5-4-----------2-5-4--6/8----2-5-4-----------2-5-4--8/10--
----2-5-4-----------2-5-4--5/7----2-5-4-----------2-5-4--7/9---
----2-5-4-----------2-5-4---------2-5-4-----------2-5-4--------
----------3h4---------------------------3h4--------------------
-0------------3--0-------------0------------3--0---------------


--------------------------------------------------10-9-8-----------
----2-5-4-----------2-5-4--6/8----2-5-4------------------10-9---9^-
----2-5-4-----------2-5-4--5/7----2-5-4-----------------------9----
----2-5-4-----------2-5-4---------2-5-4----------------------------
----------3h4---------------------------3h4------------------------
-0------------3--0-------------0------------3--0-------------------


Chorus  (Lead Guitar)
(Dist Guitar)

-----------------------------------
-----------------------------------
-----------------------------------
-9---8---7---5/7---9---8---7---5/7-
-7---6---5---3/5---7---6---5---3/5-
-----------------------------------


Chorus  (Rhythm Guitar)
(Dist Guitar)

-------------------
-------------------
-9-9-9-9-9-9-9-9-9-
-9-9-9-9-9-9-9-9-9-
-7-7-7-7-7-7-7-7-7-
-------------------


Main Riff
(Dist Guitar)

-------------------------------------------------
----2-5-4-----------2-5-4--6/8----2-5-4----------
----2-5-4-----------2-5-4--5/7----2-5-4----------
----2-5-4-----------2-5-4---------2-5-4----------
----------3h4---------------------------3h4------
-0------------3--0-------------0------------3--0-

Well...there it is...  It is the bigest tab I've ever done...
Please mail me comments or corrections at 
fanta98@hotmail.com or pogo@pianotabs.net
comments
We did not receive enough feedback on this tab! Please rate:
print report bad tab
1 2 3 4 5
I want to post or [tab]
guest
You may want to rate the tab now too:
select rating
Please do not post tabs as comments. Select "correction" instead!