Oops, an error
Loading. Please wait.

You Have The Blues Not Me Chords

932 views 3 this week
no commentswrite comment
1 2 3 4 5
please rate
add to favorites
launch autoscroll
font size
0
reset
transpose
0
reset
simplify chords
display chords
guitar tuner
Autoscroll
slow
fast
+/-
esc
set tempo
stop
Help us to improve Ultimate-Guitar.com Take our survey!
×
Contributor
-------------------------------------------------------------------------------
                    You Got The Blues, Not Me - David Lee Roth
-------------------------------------------------------------------------------
Tabbed by: Me.

By: C.Youlden

Album: Diamond Dave

Awesomeness: Great Song!
----------------------------------

Intro:
  E5        A5       E5       A5       E5      A5        E5       A5 
|------------------------------------------------------------------------|
|--------------2-0---------------2-0---------------2-0---------------2-0-|
|-----1-0--2-2-2-0------1-0--2-2-2-0------1-0--2-2-2-0------1-0--2-2-2-0-|
|-2-2-2-0--2-2------2-2-2-0--2-2------2-2-2-0--2-2------2-2-2-0--2-2-----|
|-2-2------0-0------2-2------0-0------2-2------0-0------2-2------0-0-----|
|-0-0---------------0-0---------------0-0---------------0-0--------------|

Then, everytime guitar 1 plays E5, guitar 2 comes in with an extra E5.

After that guitar 2 & the Sax comes in on both E5 & A5.

Verse:

Riff
I'm tired of being a fool
Riff
And my mind going from hot to cool
     D5             D5        D5     D5
And trying to conform to others ideas
Riff
And someone else's rules


Verse Same as above.

E                                                    G E
I'm tired of trying to be something I know ain't me
                                                        G E
I'm tired of living up to what people expect me to be

You know some people are different
                               G E
Now ain't that a crying shame

Now wouldn't be a real drag if we were all the same


Verse same as the other.

Solo:

E E A A x8
E A

E                                                    G E
I'm tired of trying to be something I know ain't me
                                                        G E
I'm tired of living up to what people expect me to be

You know some people are different
                               G E
Now ain't that a crying shame

Now wouldn't be a real drag if we were all the same

And I'm not going to try to please
Eyes that just don't see
If I get myself together
You'll have the blues not me


Over this part you play a nice little lick which I have, but I don't know if it's right.

You'll have the blues not me
--------------------------------
Comments & Corrections are welcome!
comments
We did not receive enough feedback on this tab! Please rate:
print report bad tab
1 2 3 4 5
I want to post or [tab]
guest
You may want to rate the tab now too:
select rating
Please do not post tabs as comments. Select "correction" instead!