Oops, an error
Loading. Please wait.

Born For You Ukulele Chords

version 1
version 1

Live

  • Born for you teleserye theme song.

Whole song

118 views 9 this week
no commentswrite comment
1 2 3 4 5
3 more votes to show rating
add to favorites
launch autoscroll
font size
0
reset
transpose
0
reset
simplify chords
display chords
guitar tuner
Autoscroll
slow
fast
+/-
esc
set tempo
stop
Help us to improve Ultimate-Guitar.com Take our survey!
×
Author
Difficulty
intermediate
About this tab version
Born for you teleserye theme song. Was this info helpful? Yes No
Arranged by Resty Remigio
Youtube link : https://www.youtube.com/watch?v=qBZKiRUUnJU



[Intro]


   C                                    F                          C
A|------------7-------5--------3--5--7--7---8-7-----------------------|
E|-----0---/3-------3-------3--3--------5-----5--8--5----5-5-5-----0--|
C|---0------------0-------0----0--------5-----------5----5-----7-5-0--|
G|-0------------0-------0------0--------5-5---------5----5---------0--|


                                F             G
A|----7-------5--------3--5--7--7--8-7--------10-------8---------|
E|-/3-------3-------3--3--------5-------8--/7--------7--------7--|
C|--------0-------0----0--------5------------------0--------0----|
G|------0-------0------0--------5----------------0--------0------|


[Verse 1]


   C                                    F
A|-3--3----3-----3-3---5-----3---2---|--3-3-----3-----3-3---5-----3---2-- |
E|-0--0----0-----0-0---0-----0---0---|--1-1-----1-----1-1---1-----1---1---|
C|-0-----------0-----------0---------|--0-----------0-----------0---------|
G|-0-----0---0-------0---0-----0---0-|--2-----2---2-------2---2-----2---2-|
  Too many billion people             Running around the planet


   C                                        F
A|-3--3------3------3-3---5---------3--5----7----8-7-------------------|
E|-0--0------0------0-0---0-----0-----------5------5-----8---5-----5---|
C|-0--------------0-----------0-------------5----------------5-----5---|
G|-0-----0------0-------0---0---------------5-5-------5----5-----5---5-|
 What is the chance in heaven    That you'd find your way to me?


          Em                         Am
A|----0---2------2---2------2--2---3-------|
E|--------3------3---3------3--3---3-----0-|
C|-7------4---------------4----0-------0---|
G|--------0---0---------0------0-0---2-----|
 Tell me what is the sweet sensation?


          F                  C
A|-3---2--0--------------------------------|
E|-0---0--1---3-3-----1----1---1h3------3--|
C|--------0---0-0---0-0----0---0-0----0----|
G|---2----2-2-----2-----2----2------2------|
  It's a miracle    that's happened


              Em                    Am
A|---------0--2---2-2------2--2---3-------|
E|-----3------3---3-3------3--3---3-----0-|
C|---0--------4----------4----0-------0---|
G|-0----------0-0------0------0-0---2-----|
    Though I search for an explanation


            Dm                  G  
A|--3---2---0---2----3-----3/5--5---|-----10----------|
E|--0---0---1--------1----------3---|----------8---7--|
C|----------2------------2------2---|-2/7--------7-7--|
G|----2-----2-2--------2--------0---|--------0-----7--|
    Only   one thing it   could be


[Chorus]


              F                                    G               C
A|--5--7--8---10-----------------------------------5---5-5-----5/7-7-------|
E|--3---------5------8--8-----8-8-----8-8----8-----3-----3---------0-----0-|
C|--2---------5----5----5---5---5---5---5----5-----2---------2-----0---0---|
G|------------5--5--------5-----5-5-----5-5----0---0-0-----0-------0-0-----|
  That I was born   for you                 It was written in the stars


             F                                  G                  C
A|--7--8-10--10---------------------------------5-----5--------5/7-7-------|
E|--0--------5------8-8-----8-8-----8-8---8-----3--------3---------0-----0-|
C|--0--------5----5---5---5---5---5---5---5-----2------------2-----0---0---|
G|--0--------5--5-------5-----5-5-----5-5----0--0--0-------0-------0-0-----|
  Yes, I was born for you               And the choice was never  ours


                  F                     Fm
A|--7---5--3----------10-8-----7-7-----5-5------|
E|--0------0--7---5------5-------5-------5------|
C|--0------0------5------5---5---5---5---5---5--|
G|--0------0------5-5----5-5-----5-5-----5-5----|
   It's as if the powers of the universe


      C                D7
A|----8-----7--7----5---5-------5--------|
E|-8--0--------0----0---2-----2-------2--|
C|----0---0----0--------2---2-------2----|
G|----0-0------0--0---0-0-0-------0------|
  Conspired to make you mine


      C                   Fm
A|--0------7---7-----7/8--5-------5------|-
E|----3--------3----------5-----5--------|-
C|----0------------0------5---5-------5--|-
G|----0--0-------0--------5-5-------5----|-
  And till the day   I   die,


     C        Dm        F        G    F   C
A|---------7---5--------8-----------------3--|
E|-4-3---------5----8---5-----8--8----7---0--|
C|---0---------5--------5---5----5--------0--|
G|---0--0----0-7-7------5-5------5--5---5-0--|
   I bless the day that I    was born for you


A|--------7-------5--------3-5-7--7---8-7---------10-------8--------|
E|-----/3-------3-------3--3------5-----5---8—5/7--------7-------7--|
C|---0--------0-------0----0------5--------------------0-------0----|
G|-0--------0-------0------0------5-5-----5----------0-------0------|


[Verse 2]


   C                                    F
A|-3--3----3-----3-3---5-----3---2---|--3-3-----3-----3-3---5-----3---2-- |
E|-0--0----0-----0-0---0-----0---0---|--1-1-----1-----1-1---1-----1---1---|
C|-0-----------0-----------0---------|--0-----------0-----------0---------|
G|-0-----0---0-------0---0-----0---0-|--2-----2---2-------2---2-----2---2-|
  Too many foolish people             Trying to come between us


   C                                      F
A|-3--3------3------3-3---5---------3--5--7----8-7-----------------|
E|-0--0------0------0-0---0-----0---------5------5---8---5-----5---|
C|-0--------------0-----------0-----------5--------------5-----5---|
G|-0-----0------0-------0---0-------------5-5------5---5-----5---5-|
 None of them seem to matter      When I look into your eyes


          Em               Am
A|----0---2----2-2------2--2---3-------|
E|--------3----3-3------3--3---3-----0-|
C|-7------4-----------4----0-------0---|
G|--------0--0------0------0-0---2-----|
  Now I know why I     belong here


          F                   C
A|-3---2--0---------------------------------|
E|-0---0--1-----3-3-----1---1---1h3------3--|
C|--------0-----0-0---0-0---0---0-0----0----|
G|---2----2--2------2-----2---2------2------|
  In your arms  I found the  answer


              Em                          Am
A|---------0--2-------2---2------2--2---3-------|
E|-----3------3-------3---3------3--3---3-----0-|
C|---0--------4----------------4----0-------0---|
G|-0----------0---0----------0------0-0---2-----|
     Somehow nothing would seem so wrong here


              Dm                 G  
A|--3---2-----0---2----3-----3/5-5---|-----10----------|
E|--0---0-----1--------1---------3---|----------8---7--|
C|------------2------------2-----2---|-2/7--------7-7--|
G|----2-------2-2--------2-------0---|--------0-----7--|
    If they'd only     realise…


[Chorus]


              F                                     G                 C
A|--5--7--8---10------------------------------------5---5-5------5/7--7-------|
E|--3---------5------8--8-----8-8-----8-8----8------3-----3-----------0-----0-|
C|--2---------5----5----5---5---5---5---5----5------2---------2-------0---0---|
G|------------5--5--------5-----5-5-----5-5-----0---0-0-----0---------0-0-----|
  That I was born   for you                And that you were born for me


              F                                   G                  C
A|--7--8-10---10----------------------------------5-----5--------5/7-7-------|
E|--0---------5------8-8-----8-8-----8-8---8------3--------3---------0-----0-|
C|--0---------5----5---5---5---5---5---5---5------2------------2-----0---0---|
G|--0---------5--5-------5-----5-5-----5-5----0---0--0-------0-------0-0-----|
  And in this random world,              This was clearly  meant to  be


                    F                          Fm
A|--7---5---3-------------10----8-----7-7-----5-5------|
E|--0-------0---7---5-----------5-------5-------5------|
C|--0-------0-------5-----------5---5---5---5---5---5--|
G|--0-------0-------5--5--------5-5-----5-5-----5-5----|
   What we have the world could never understand


      C                D7
A|----8-----7--7----5---5-------5--------|
E|-8--0--------0----0---2-----2-------2--|
C|----0---0----0--------2---2-------2----|
G|----0-0------0--0---0-0-0-------0------|
  Or ever     take  away…


      C                   Fm
A|--0------7---7-----7/8--5-------5------|
E|----3--------3----------5-----5--------|
C|----0------------0------5---5-------5--|
G|----0--0-------0--------5-5-------5----|
  And till the day   I   die,


     C        Dm        F
A|---------7---5--------8---|
E|-4-3---------5----8---5---|
C|---0---------5--------5---|
G|---0--0----0-7-7------5---|
   I bless the day that I…

  
[Instrumental]


A|--5--7--8---10-------------------------------5---5-5--|
E|--3---------5------8-8-----8-8-----8-8---8---3-----3--|
C|--2---------5----5---5---5---5---5---5---5---2--------|
G|------------5--5-------5-----5-5-----5-5---0-0-0------|


A|-----5/7--7--------|--7-8-10--10-------------------------------5---5-5--|
E|----------0-----0--|--0-------5------8-8-----8-8-----8-8---8---3-----3--|
C|---2------0---0----|--0-------5----5---5---5---5---5---5---5---2--------|
G|-0--------0-0------|--0-------5--5-------5-----5-5-----5-5---0-0-0------|


A|-----5/7--7--------|--7-5-3-------10-8-----5-5h7-----5-5--------8------|
E|----------0-----0--|--0---0-7-5------5-------5---------5------8-0------|
C|---2------0---0----|--0---0---5------5---5---5-----5---5---5----0---0--|
G|-0--------0-0------|--0---0---5-5----5-5-----5---5-----5-5------0-0----|


A|-7-7---5---5-------5--------|--0-----7-7-----7/8--5-------5------|
E|---0---0---2-----2-------2--|----3-----3----------5-----5--------|
C|---0-------2---2-------2----|----0---------0------5---5-------5--|
G|---0-0---0-0-0-------0------|----0-0-----0--------5-5-------5----|


A|-------7-7-----7-/12-10-7-------|-------8--7-5----8--------3—-|
E|-4-3-----3-----3--0-------9-5---|--6-5-----0---8--5--8-8-7-0--|
C|---0---------0----0---------5---|----5-----0------5----5---0--|
G|---0-0-----0------0---------5---|----5-----0------5----5---0--|


A|--------7-------5--------3-5-7--7---8-7---------10-------8--------|
E|-----/3-------3-------3--3------5-----5---8—5/7--------7-------7--|
C|------------0-------0----0------5--------------------0-------0----|
G|----------0-------0------0------5-5-----5----------0-------0------|


A|--5/7-------7\3--|
E|--0-------0---0--|
C|--0-----0-----0--|
G|--0---0-------0--|


***********************************
| /   slide up
| \   slide down
| h   hammer-on
| p   pull-off
***********************************


Enjoy!
View the video tutorial here: https://www.youtube.com/watch?v=qBZKiRUUnJU
Suggest correction
Give kudos to tab author, rate the tab!
1 2 3 4 5
comments
print report bad tab
guest
You may want to rate the tab now too:
select rating
Wanna post a correction for this tab? Suggest correction