Oops, an error
Loading. Please wait.

Love Is All That Matters Tab

11,696 views 27 this week
2 commentsread comments
1 2 3 4 5
please rate
add to favorites
launch autoscroll
font size
0
reset
how to read this tab
guitar tuner
Autoscroll
slow
fast
+/-
esc
set tempo
stop
Help us to improve Ultimate-Guitar.com Take our survey!
×
Author
Difficulty
novice
This is only the chorus part but it sounds good....
enjoy!!!!..

any comment or suggestion please don't hesitate to inform me at:
rrdie_000@yahoo.com.ph

e|-----------7-5-4-2----------|
B|-5-7-9-5-7---------4-5-7----|
G|----------------------------|
D|----------------------------|
A|----------------------------|
E|----------------------------|

e|-----------7-5-4-2----------|
B|-5-7-9-5-7---------4-5------|
G|----------------------------|
D|----------------------------|
A|----------------------------|
E|----------------------------|

PLEASE RATE!!... :)
Suggest correction
Give kudos to tab author, rate the tab!
1 2 3 4 5
comments
print report bad tab
2 comments total.
0 reply
xSlAsHeR17x 10 wrote on December 19 2011, 10:39 pm

ang tanga mo naman kumapa ng tab. mali pa. ang panget ng tono..!!!

0 reply
qqqq00475 24 wrote on September 29 2016, 10:02 am

e|-----------5-3-2------------|
B|-3-5-7-3-5-------5-3-5-7----|
G|----------------------------|
D|----------------------------|
A|----------------------------|
E|----------------------------|

e|----------------------------|
B|-3-5-7-3-5-10-8-5h7h5-3-3---|
G|----------------------------|
D|----------------------------|
A|----------------------------|
E|----------------------------|
hammer -h
in piano
c-d-e-c-d-g-f-e-d-c-d-c-d-e-c-d-g-f-f-d-e-d-c-c
1-2-3-1-2-5-4-3-2-1-2-3-1-2-3-1-2-5-4-2-3-2-1-1

guest
You may want to rate the tab now too:
select rating
Wanna post a correction for this tab? Suggest correction