Oops, an error
Loading. Please wait.

All I Need Tab

686 views 1 this week
no commentswrite comment
1 2 3 4 5
please rate
add to favorites
launch autoscroll
font size
0
reset
how to read this tab
guitar tuner
Tab Pro tools
  • play this tab
  • loop segment
  • change instrument
  • show fretboard
  • metronome
Autoscroll
slow
fast
+/-
esc
set tempo
stop
Difficulty
Tuning
novice
D# G# C# F# A# D#
Song: All I Need
Artist: David Ryan Harris
Album: The Bittersweet/Soulstice
Tab: I tabbed the whole song by ear/video. This is based off one of his live
videos on Youtube. A section is missing. Please credit me. Thank you!

~ en.cat@live.com

Tuning: Half-step down

e   --->  e#
B   --->  B#
G   --->  G#
D   --->  D#
A   --->  A#
E   --->  E#

Intro:

------------12-9--------------------------------12-9---------------9-|
9--10-12-10-------9--10-12-10-9--7--9--10-12-10------9--10-12-10-9---|
---------------------------------------------------------------------|
---------------------------------------------------------------------|
---------------------------------------------------------------------|
---------------------------------------------------------------------|


Verse:

----------------------------|
------------------2--22--22-|
------------------2--22--22-|
------------------0--00--00-|
2--4--5--------2--2--22--22-|
---------2--5---------------|

----------------------------|
------------------2--22--22-|
------------------2--22--22-|
------------------0--00--00-|
2--4--5-----4--2--2--22--22-|
---------2------------------|

----------------------------|
------------------2--22--22-|
------------------2--22--22-|
---------2--4-----0--00--00-|
2--4--5--------2--2--22--22-|
----------------------------|

Or even ...

---7-----7-----7-----7-----9-10-9-|
10----10----10----10----10--------|
----------------------------------|
----------------------------------|
----------------------------------|
----------------------------------|

Chorus:

4--5--9--9--|
5--5--7--10-|
4--6--7--9--|
6--7--7--9--|
X--X--X--X--|
4--5--7--10-|


Bridge:

-
-
-
-
-
-
-

Bridge (2):

--------------|
3--5--3-------|
4--6--4-------|
5--6--5-------|
5--4--5--5--2-|
3-----3--2--0-|

Bridge (3):

---9-----9-----7-----7-----7-----7-----5--5-|
---10----10----10----10----5-----5-----2--2-|
7-----7-----7-----7-----6-----6-----2-------|
--------------------------------------------|
--------------------------------------------|
--------------------------------------------|

---------------------------------------------|
------3--------------------3--2--------------|
---------------2--4--------4--2---------6--4-|
---4--------2-----------2-----------4--------|
2--------2-----------0-----------5-----------|
---------------------------------------------|

Outro:

-----------|
3--3--2--2-|
2--4--2--2-|
4--2--2--2-|
2--2--0--X-|
---------2-|
comments
We did not receive enough feedback on this tab! Please rate:
print report bad tab
1 2 3 4 5
I want to post or [tab]
guest
You may want to rate the tab now too:
select rating
Please do not post tabs as comments. Select "correction" instead!