Oops, an error
Loading. Please wait.

For You Tab

version 3
version 3

Whole song

73 views 1 this week
no commentswrite comment
1 2 3 4 5
2 more votes to show rating
add to favorites
launch autoscroll
font size
0
reset
how to read this tab
guitar tuner
Autoscroll
slow
fast
+/-
esc
set tempo
stop
Help us to improve Ultimate-Guitar.com Take our survey!
×
Author
Difficulty
Tuning
advanced
D# G# C# F# A# D#
-------------------------------------------------------------------------------
                             For You - David Ryan Harris
-------------------------------------------------------------------------------
Tuning: Eb Ab Db Gb Bb eb (Half step down)

Chords used:
G          355433
Bm7        x24232
C          x35553
Cm         x35543
G/B        x20033
Am7        x02010
C(2)       x32010
Dsus2      xx0230
D/F#       2x0230
Em7add9    0x4030
Cm7        x35343
Dm7        x57565
D#m7       x68676
A#/D       10,x,8,10,11,x
F7/A       x0324x
G/B(2)     7x578x

[Fill]
    Em    C     D      Bm    Cm
eb|------------------------------|
Bb|-8-----7-----5------3-----4---|
Gb|-0-0---0-0---0-0----0-0---0-0-|
Db|------------------------------|
Ab|-7-----5-----3------2-----3---|
Eb|------------------------------|

"Ooooooooo...."     x2

[Verse 1]

G               Bm7
Saturday before the sun is up
    C        G/B     Am7
I'm out the door and on my way I
G                          Bm7
Catch the two and then the thirty five
       Cm     G/B      Am7
And by six fifteen I'm on the train
G                     Bm7
Thirty miles till the final stop
    C       G/B     Am7
And still I have to walk a few more
G                                Bm7
By the time I finally reach your garden's gate
       Cm       G/B            Am7
I have nineteen steps till I'm at your door

[Pre-Chorus]

C(2)            D/F#
And oh what a thrill
  Em7add9          Bm7
To finally be with you
    C(2)
And when I see your face I know that


[Chorus]
G                    Bm7             C       G/B     Am7
There ain't nothing strong enough to keep me away from you
G                    Bm7                         C           G/B     Am7
There can be a wall of fire ten feet or higher I would just walk on through
G                    Bm7                  C          G/B     Am7
Where there once was only room for one forever there will be two

    Em            C     D        Bm      Cm    Dsus2   G
eb|---------------------------------------------------3--------|
Bb|-8------------7-----5--------3-------4---------3---3--------|
Gb|-0-0----------0-0---0-0------0-0-----0-0-----2-----4--------|
Db|-------------------------------------------0-------5--------|
Ab|-7------------5-----3--------2-------3-------------5--------|
Eb|---------------------------------------------------3--------|

  That's why I travel all this way for you, To you, For you

 (Fill)
 "Ooooooo...." x2

[Verse 2]
G               Bm7
Sunday night and I'm at home alone
       C        G/B        Am7
And I miss the smell of your perfume
G               Bm7
Five longs days and four more hours
       Cm       G/B        Am7
Till I am there again with you

[Pre-Chorus]

C(2)            D/F#
And oh what a thrill
  Em7add9          Bm7
To finally be with you
    C(2)
And when I see your face I know that

[Chorus]

G                    Bm7             C       G/B     Am7
There ain't nothing strong enough to keep me away from you
G                    Bm7                         C           G/B     Am7
There can be a wall of fire ten feet or higher I would just walk on through
G                    Bm7                  C          G/B     Am7
Where there once was only room for one forever there will be two

    Em    C     D      Bm    Cm
eb|---------------------------------|
Bb|-8-----7-----5------3-----4------|
Gb|-0-0---0-0---0-0----0-0---0------|
Db|---------------------------------|
Ab|-7-----5-----3------2-----3------|
Eb|---------------------------------|
  That's why I travel all this way for you,

[Bridge]

Cm7             Dm7
Seconds make minutes
      D#m7      A#/D
Make hours make days
F7/A
I've added it all up a million ways
Cm7             Dm7    D#m7     A#/D
Multiply that times the fact that when I'm with you
           G/B(2)
I feel brand new
(Fill)
Girl and that's why I travel all this way for you


[Chorus]
G                    Bm7             C       G/B     Am7
There ain't nothing strong enough to keep me away from you
G                    Bm7                         C           G/B     Am7
There can be a wall of fire ten feet or higher I would just walk on through
G                    Bm7                  C          G/B     Am7
Where there once was only room for one forever there will be two

    Em    C     D      Bm    Cm
eb|------------------------------|
Bb|-8-----7-----5------3-----4---|
Gb|-0-0---0-0---0-0----0-0---0-0-|
Db|------------------------------|
Ab|-7-----5-----3------2-----3---|
Eb|------------------------------|
That's why I drive alone this way
    Em    C     D      Bm    Cm
eb|------------------------------|
Bb|-8-----7-----5------3-----4---|
Gb|-0-0---0-0---0-0----0-0---0-0-|
Db|------------------------------|
Ab|-7-----5-----3------2-----3---|
Eb|------------------------------|
Just to see your pretty face
    Em            C     D        Bm      Cm    Dsus2   G
eb|---------------------------------------------------3--------|
Bb|-8------------7-----5--------3-------4-------3-----3--------|
Gb|-0-0----------0-0---0-0------0-0-----0-0-----2-----4--------|
Db|---------------------------------------------0-----5--------|
Ab|-7------------5-----3--------2-------3-------------5--------|
Eb|---------------------------------------------------3--------|
Each and every Saturday for you, to you, for you
Suggest correction
Give kudos to tab author, rate the tab!
1 2 3 4 5
comments
print report bad tab
guest
You may want to rate the tab now too:
select rating
Wanna post a correction for this tab? Suggest correction