Oops, an error
Loading. Please wait.

Dont Give Up On Us Baby Tab

17,594 views 27 this week
no commentswrite comment
1 2 3 4 5
excellent!
x 8
add to favorites
launch autoscroll
font size
0
reset
how to read this tab
guitar tuner
Tab Pro tools
  • play this tab
  • loop segment
  • change instrument
  • show fretboard
  • metronome
×
Best way to learn
"Dont Give Up On Us Baby"
Autoscroll
slow
fast
+/-
esc
set tempo
stop
Contributor
DON’T GIVE UP ON US – DAVID SOUL
Tabbed by: Aaron James Bodoraya (Pandacan, Manila)
Email:Combat_ron33@yahoo.com
Tuning:standard

INTRO:
    D                    E/D                 C#m7
e|--2--------2--------7--4--------4-----5--7-----------4--------4---|
B|--------3--------3-----------5--------------------5--------5------|
G|-----2--------2-----------4--------4-----------4--------4---------|
D|--0--------------------0------------------------------------------|
A|--------------------------------------------4---------------------|
E|------------------------------------------------------------------|
   F#m                      D                           E
e|--------------------------2--------2--------2---------0----0------|
B|-----------2--3-----5-----------3--------3-----2------0----0------|
G|--------2--------2-----2-----2--------2---------------1----1------|
D|-----4--------------------0---------------------------2----2------|
A|------------------------------------------------------2----2------|
E|--2---------------------------------------------------0----0------|

VERSE 1:

    A                    C#m7                   D
e|-----------0---------------------0---------------------2----------|
B|--------2----------2----------0----------0----------3----------3--|
G|-----2----------2----------1----------1----------2----------2-----|
D|----------------------------------------------0-------------------|
A|--0---------------------4-----------------------------------------|
E|------------------------------------------------------------------|
DON’T  GIVE   UP   ON   US   BABY   DON’T   MAKE   THE   WRONG   SEEM

   E/D                       C#m7                 F#m
e|--4--------4-----5--7---------------0--------------------2--------|
B|--------5------------------------0---------0----------2--------2--|
G|-----4--------4--------4------1---------1----------2--------2-----|
D|--4---------------------------------------------------------------|
A|---------------------------4--------------------------------------|
E|------------------------------------------------2-----------------|
    RIGHT                THE  FUTURE  ISN’T  JUST  ONE  NIGHT

    D                       C#m7                 D
e|-----------2------------------------0-------------------2---------|
B|--------3----------3-------------0---------0---------3---------3--|
G|-----2----------2-------------1---------1---------2---------2-----|
D|--0--------------------------------------------0------------------|
A|---------------------------4--------------------------------------|
E|------------------------------------------------------------------|
   IT’S  WRITTEN  IN  THE  MOONLIGHT         AND  PAINTED  ON  THE

   C#m7                 Bm                       E
e|-----------0--------------------2--------------0----0-------------|
B|--------0---------0----------3--------3--------0----0-------------|
G|-----1---------1----------4--------4-----4-----1----1-------------|
D|-----------------------------------------------2----2-------------|
A|--4--------------------2-----------------------2----2-------------|
E|-----------------------------------------------0----0-------------|
    STARS   WE   CAN’T   CHANGE   OURS                     DON’T GIVE

VERSE 2:

    A                    C#m7                   D
e|-----------0---------------------0---------------------2----------|
B|--------2----------2----------0----------0----------3----------3--|
G|-----2----------2----------1----------1----------2----------2-----|
D|----------------------------------------------0-------------------|
A|--0---------------------4-----------------------------------------|
E|------------------------------------------------------------------|
UP   ON   US   BABY           WERE   STILL   WORTH   ONE   MORE


   E/D                       C#m7                 F#m
e|--4--------4-----5--7---------------0--------------------2--------|
B|--------5------------------------0---------0----------2--------2--|
G|-----4--------4--------4------1---------1----------2--------2-----|
D|--4---------------------------------------------------------------|
A|---------------------------4--------------------------------------|
E|------------------------------------------------2-----------------|
    TRY                I  KNOW  IT  WOULD  HAVE  LOST  ONE  BY

    D                       C#m7                 D
e|-----------2---------------------0-------------------2------------|
B|--------3----------3----------0---------0---------3---------3-----|
G|-----2----------2----------1---------1---------2---------2-----2--|
D|--0-----------------------------------------0---------------------|
A|------------------------4-----------------------------------------|
E|------------------------------------------------------------------|
     JUST   FOR   A   RAINY   EVENING         AND  MAYBE  SKY’S  ARE

   C#7                    Bm                      E      A
e|-----------4----------------------2-------------0--0-----------2-----------|
B|--------6---------6------------3---------3------0--0--------2--------2-----|
G|-----4---------4-----4------4---------4-----4---1--1-----2--------2-----2--|
D|------------------------------------------------2--2-----------------------|
A|--4----------------------2----------------------2--2---0-------------------|
E|------------------------------------------------0--0-----------------------|
   FEW  DON’T  GIVE  UP  ON  US  I  KNOW              WE CAN STILL COME TRUE….

CHORUS:

    F                                                 Bm  
e|--1--------------------------------------------------2---------------------|
B|--1--------------------------------------------------3---------------------|
G|--2--------------------------------------------------4---------------------|
D|--3--------------------------------------------------4---------------------|
A|--3--------------------------------------------------2---------------------|
E|--1------------------------------------------------------------------------|
  I REALLY  LOST  MY  HEAD  LAST  NIGHT  YOU  GOT   A  RIGHT  TO STOP BELEIVING

    A             C#7                         F#m
e|--0--------------4---------------------------2-----------------------------|
B|--2--------------6---------------------------2-----------------------------|
G|--2--------------4---------------------------2-----------------------------|
D|--2------------------------------------------4-----------------------------|
A|--0--------------4---------------------------4-----------------------------|
E|---------------------------------------------2-----------------------------|
            THERE’S  STILL  A  LITTLE  LOVE  LEFT                 EVEN

    Bm               F                E
e|--2----------------1----------------0--------------------------------------|
B|--3----------------1----------------0--------------------------------------|
G|--4----------------2----------------1--------------------------------------|
D|--4----------------3----------------2--------------------------------------|
A|--2----------------3----------------2--------------------------------------|
E|-------------------1----------------0--------------------------------------|
    SO                                                        DON’T   GIVE      
       
VERSE 3:

    A                    C#m7                   D
e|-----------0---------------------0---------------------2----------|
B|--------2----------2----------0----------0----------3----------3--|
G|-----2----------2----------1----------1----------2----------2-----|
D|----------------------------------------------0-------------------|
A|--0---------------------4-----------------------------------------|
E|------------------------------------------------------------------|
UP   ON   US   BABY           GOD   KNOWS   WEVE  COME       THIS

   E/D                       C#m7                 F#m
e|--4--------4-----5--7---------------0--------------------2--------|
B|--------5------------------------0---------0----------2--------2--|
G|-----4--------4--------4------1---------1----------2--------2-----|
D|--4---------------------------------------------------------------|
A|---------------------------4--------------------------------------|
E|------------------------------------------------2-----------------|
    FAR               CAN’T  WE  STAY  THE  WAY  WE  ARE

    D                       C#m7                 D
e|-----------2---------------------0-------------------2------------|
B|--------3----------3----------0---------0---------3---------3-----|
G|-----2----------2----------1---------1---------2---------2-----2--|
D|--0-----------------------------------------0---------------------|
A|------------------------4-----------------------------------------|
E|------------------------------------------------------------------|
     THE  ANGEL  AND  THE  DREAMER             SOMETIMES    PLAY   A  

   C#7                    Bm                      E      A
e|-----------4----------------------2-------------0--0-----------2-----------|
B|--------6---------6------------3---------3------0--0--------2--------2-----|
G|-----4---------4-----4------4---------4-----4---1--1-----2--------2-----2--|
D|------------------------------------------------2--2-----------------------|
A|--4----------------------2----------------------2--2---0-------------------|
E|------------------------------------------------0--0-----------------------|
   FOOL   DON’T  GIVE  UP  ON  US  I  KNOW              WE CAN STILL COME TRUE….


comments
print report bad tab
I want to post or [tab]
guest
You may want to rate the tab now too:
select rating
Please do not post tabs as comments. Select "correction" instead!