Oops, an error
Loading. Please wait.

The End Chords

7 views 3 this week
no commentswrite comment
1 2 3 4 5
2 more votes to show rating
add to favorites
launch autoscroll
font size
0
reset
transpose
0
reset
simplify chords
display chords
guitar tuner
Autoscroll
slow
fast
+/-
esc
set tempo
stop
Help us to improve Ultimate-Guitar.com Take our survey!
×
Author
Fm  133111
Bbm x13321
C   x35553
F5  133xxx
C5  x355xx
Bb5 x133xx
F5* x81010xx

[Intro] |Fm Bbm|C   |Fm Bbm|C   |
e|-----------------------------------------|
B|-----------------------------------------|
G|-----------------------------------------|
D|-----------------------------------------|
A|-------------1--1-3-4-1-3---3-4-3-1------|
E|-1--1-3-4-1--------------------------4-3-|

Fm                    Bbm
High, high flames and boiling water,
C            Fm
still nobody knew
                      Bbm
stare at the ceiling, make way for something
C            Fm
still nobody moves
                Bbm         C
oh my goodness, oh my god I fear
Fm              Bbm         C
oh my goodness, oh my god I fear

I fear I'm cracking up

[Interlude] |Fm Bbm|C   |Fm Bbm|C   |

Fm
One million feelings
Bbm                C
is this for real I ask?
       Fm
nobody knows
                            Bbm           C
somebody's daughter made me walk on water
             Fm
don't let me sink

I think I'm stupid
Bbm              C
luxury problems, still
Fm
I think I'm stupid
Bbm              C
luxury problems, still
                     Fm
it's more than I can take

[Solo]|F5 C5|Bb5 F5*| x 2
      |C5   |

e|-------------------------------------------------|
B|-------------------------------------------------|
G|-------------------------------------------------|
D|---------------------------------------------2-3-|
A|333---333---333---333----------2-3--1-3-4--------|
E|----4-----4-----4-----4-1-3-4--------------------|

e|--------------------------------|
B|--------------------------------|
G|--------------------------------|
D-------------------------2-3---2-|
A-----------2-3--1-3-4------------|
E---1-3-4-------------------------|

Fm                      Bbm
Crying in the basement, what can I say
      C          Fm
but I am so very sorry
Fm                        Bbm           C
who would've thought that it would ever dry
        Fm
leaving nothing
Fm             Bbm             C
oh my goodness, oh my dear is this
Fm             Bbm             C
oh my goodness, oh my dear is this

[Outro] |Fm Bbm|C   |Fm Bbm|C   |
Suggest correction
Give kudos to tab author, rate the tab!
1 2 3 4 5
comments
print report bad tab
guest
You may want to rate the tab now too:
select rating
Wanna post a correction for this tab? Suggest correction