Oops, an error
Loading. Please wait.

Do The Bearcat tab

version 1
version 1

Whole song

223 views 9 this week
no commentswrite comment
1 2 3 4 5
2 more votes to show rating
add to favorites
×
Save as Personal and add changes to this tab that will be seen only by you. Learn more ›
×
You can save this tab as Personal to edit and correct it or add notes. All changes will be seen only by you. Learn more »
launch autoscroll
font size
0
reset
how to read this tab
guitar tuner
edit
Autoscroll
slow
fast
+/-
esc
set tempo
stop
Author
Difficulty
[Verse]
e|---------------------------------|
B|---------------------------------|
G|---------------------------------| 
D|--------------------------7------|  (x3)
A|-0----0--4--5--6--7--7h9---------|
E|---------------------------------|

e|-------------------------------|
B|-------------------------------|
G|-------------------------------| 
D|-------------------------------|
A|-0-----------------------------|
E|----0----0----0----0-----------| Dive bomb (Variations on the dive bomb pitch and using 12b on the E string)

I went to the zoo
Just the other week
Saw the kangaroo
Had a talk with the chimpanzee
He said, "Hey brother, if you want a thing that's hip.  Do the bearcat."
Do the bearcat
Mmm....
That's the name of this song
Do the bearcat
Take a little lesson and you can't go wrong
Do the bearcat
Mmmmmm...
That's the way we like it
Do the bearcat

[Chorus]
e|---------------------------------------|
B|---------------------------------------|
G|---------------------------------------|
D|---------------11----11--11----11------|
A|--12---11--9---9-----9---9-----9-------|
E|---------------------------------------|
It's enough to make you wanna leave your home

e|---------------------------------------|
B|---------------------------------------|
G|---------------------------------------|
D|---------------7-----7---7-----7-------|
A|--9---7--5-----5-----5---5-----5-------|
E|---------------------------------------|
It's the kinda sound that you can't leave alone

e|---------------------------------------|
B|---------------------------------------|
G|---------------------------------------|
D|---------------4-----4---4-----4-------|
A|--5---4--2-----2-----2---2-----2-------|
E|---------------------------------------|
Enough to make you wanna get a bearcat of your own
And make him go...

e|-----------------------------------------------------|
B|----------8-------8----------------------------------|
G|----------7-------7----------------------------------| 
D|----------6-------6----------------------------------|
A|----------7-------7----------------------------------|
E|----0db------0db----0db--0db--0db--0db--0db----------|

[Solo] 
(Intro verse riff under this as rhythm section)
e|--------------16b~-----|-----22b--22b-22b-22b-22b-22b-|
B|-------16b~------------|------------------------------|
G|--13~------------------|------------------------------| 
D|-----------------------|------------------------------|
A|-----------------------|------------------------------|
E|-----------------------|------------------------------| 
Do the bearcat
Mmmm....
Late at night when the bearcat howls
He's lookin' for you
Yeah do the bearcat

e|----------------------------------------|
B|----------------------------------------|(x2)
G|--16b~--16b--14-----14---16b~-----------| 
D|----------------16----------------------|
A|----------------------------------------|
E|----------------------------------------|
 
e|--9---9---8----9--|--8----9-----8----9---|
B|--10--10--10---10-|--10---10----10---10--|
G|------------------|----------------------| 
D|------------------|----------------------|
A|------------------|----------------------|
E|------------------|----------------------| 

e|--14--14--14--14--14-|-14---12--12--12---|
B|--13--13--13--13--13-|-13---13--13--13---|
G|---------------------|-------------------| 
D|---------------------|-------------------|
A|---------------------|-------------------|
E|---------------------|-------------------| 

e|--------------------12--| 
B|--------------------13--| 
G|---14--14--14--/14------| 
D|---------------/14------|
A|------------------------|
E|------------------------| 

e|------------------------------|
B|------------------------------|
G|------------------------------| 
D|-10b--7---7-------------------|
A|--------9----10br/-3----------| 
E|---------------------5--5~----|
George Washington


George Washington

[Chorus]
e|---------------------------------------|
B|---------------------------------------|
G|---------------------------------------|
D|---------------11----11--11----11------|
A|--12---11--9---9-----9---9-----9-------|
E|---------------------------------------|
It's enough to make you wanna leave your home

e|---------------------------------------|
B|---------------------------------------|
G|---------------------------------------|
D|---------------7-----7---7-----7-------|
A|--9---7--5-----5-----5---5-----5-------|
E|---------------------------------------|
It's the kinda sound that you can't leave alone

e|---------------------------------------|
B|---------------------------------------|
G|---------------------------------------|
D|---------------4-----4---4-----4-------|
A|--5---4--2-----2-----2---2-----2-------|
E|---------------------------------------|
Enough to make you wanna get a bearcat of your own
And make him go...

e|-----------------------------------------------------|
B|----------8-------8----------------------------------|
G|----------7-------7----------------------------------| 
D|----------6-------6----------------------------------|
A|----------7-------7----------------------------------|
E|----0db------0db----0db--0db--0db--0db--0db----------|

[Verse]
e|---------------------------------|
B|---------------------------------|
G|---------------------------------| 
D|--------------------------7------|     (x3)
A|-0----0--4--5--6--7--7h9---------|
E|---------------------------------|

e|-------------------------------|
B|-------------------------------|
G|-------------------------------| 
D|-------------------------------|
A|-0-----------------------------|
E|----0----0----0----0-----------| Dive bomb (Variations on the dive bomb pitch and using 12b on the E string
Do the bearcat
Hoo howw yeah yeah
Do the bearcat
Put your hands on your hip let your backbone slip
Do the bearcat ow!
Yeah now in the song now
Do the bearcat

e|-----------------------------| 
B|--\12b~-------\12b~----------| 
G|-----------------------------| 
D|-----------------------------| 
A|-----------------------------| 
E|-----------------------------|

Do the bearcat
Keep it up yeah
Mm-mm-mm-mm
Do the bearcat
Mmmm
Keep it up now

[Outro Solo]
e|--------------------------|-------------------------------| 
B|--10----10----10----10----|-10----10-----10----10----10---| 
G|-----12b---12b---12b---12b|----12b----12b---12b---12b-----|
D|--------------------------|-------------------------------| 
A|--------------------------|-------------------------------| 
E|--------------------------|-------------------------------| 

e|----------------|-19b--17b--17b-17~-----------------------| 
B|-17--19b--20b~--|----------------------12b--12b-10~-------| 
G|----------------|-----------------------------------------| 
D|----------------|-----------------------------------------| 
A|----------------|-----------------------------------------| 
E|----------------|-----------------------------------------|


************************************

| h  Hammer-on
| b  Bend
| ~  Vibrato
| /  Slide up
| \  Slide down

************************************

            
            
Suggest correction
Creating personal tab
Creating personal tab
You can edit any tab online and save it as your Personal.

You can edit, replace or remove any tab part or add personal notes – all changes will be seen only by you.

Personal tabs can be accessed anytime from any device, even offline.
Learn more »
Give kudos to tab author, rate the tab!
1 2 3 4 5
comments
print report bad tab
guest
You may want to rate the tab now too:
select rating
Wanna post a correction for this tab? Suggest correction