Oops, an error
Loading. Please wait.

That Hypnotizin Boogie intro tab

version 1
version 1

Intro

6,004 views 9 this week
5 commentsread comments
1 2 3 4 5
x 5
add to favorites
×
Save as Personal and add changes to this tab that will be seen only by you. Learn more ›
×
You can save this tab as Personal to edit and correct it or add notes. All changes will be seen only by you. Learn more »
launch autoscroll
font size
0
reset
how to read this tab
guitar tuner
edit
Autoscroll
slow
fast
+/-
esc
set tempo
stop
Author
This is my first tab, so tell me what u think about it.

E-----------------------------------------------------------|
B-----------------------------------------------------------|
G-----------------------------------------------------------|
D-----------------------------------------------------------|
A--------5-7-8-7-5-----------5-7-8-7-5----------------------|
E--3---7-----------7---3---7-----------7--------------------|

It just repeats, thats the beginnin.

            
            
Suggest correction
Creating personal tab
Creating personal tab
You can edit any tab online and save it as your Personal.

You can edit, replace or remove any tab part or add personal notes – all changes will be seen only by you.

Personal tabs can be accessed anytime from any device, even offline.
Learn more »
comments
print report bad tab
5 comments total. Showing first comments.
+1 reply
jordanhornsby 10 Sep 12, 2007 01:59 PM

Nice tab man i liked it lol you should add one step down on to this tab tho

0 reply
bucketheadShred 106 Jul 02, 2009 08:16 AM

That is correct but:
It is played in Half-Step, and it is played like this:
eb|------------------------------------------|
Bb|------------------------------------------|
Gb|------------------------------------------| Db|------------0--0-2--2-3--3-2--2-0--0------|
Ab|-------2--2--------------------------2--2-|
Eb|--3--3------------------------------------|

0 reply
bucketheadShred 106 Jul 02, 2009 08:18 AM

Sorry, the format mess up.

eb|------------------------------------------|
Bb|------------------------------------------|
Gb|------------------------------------------|
Db|------------0--0-2--2-3--3-2--2-0--0------|
Ab|-------2--2--------------------------2--2-|
Eb|--3--3------------------------------------|

guest
You may want to rate the tab now too:
select rating
Wanna post a correction for this tab? Suggest correction