Oops, an error
Loading. Please wait.

Silver Bells bass

28 views 1 this week
no commentswrite comment
1 2 3 4 5
3 more votes to show rating
add to favorites
×
Save as Personal and add changes to this tab that will be seen only by you. Learn more ›
×
You can save this tab as Personal to edit and correct it or add notes. All changes will be seen only by you. Learn more »
launch autoscroll
font size
0
reset
guitar tuner
edit
Autoscroll
slow
fast
+/-
esc
set tempo
stop
Author
Difficulty
Tabbed by: 6METAL6BASSIST6
E-mail: petergriffinav@gmail.com

Tuning: EADG

G|------------------------------------------------------------------------------------------------|
D|------------------------------------------------------------------------------------------------|
A|------------------------------------------------5-----------------------5-----------------------|
E|5-------------------5---5-------------------------------------------5---------------------------|

G|------------------------------------------------------------------------------------------------|
D|------------------------------------------------------------------------------------------------|
A|7-----------------------7-----------------------------------------------7-------------------7---|
E|--------------------7---------------------------5-------------------5---------------------------|

0:16

G|------------------------------------------------------------------------------------------------|
D|------------------------------------------------------------------------------------------------|
A|------------------------------------------------5-----------------------5-----------------------|
E|5-------------------5---5-------------------------------------------5---------------------------|

G|------------------------------------------------------------------------------------------------|
D|------------------------------------------------------------------------------------------------|
A|7-----------------------7-----------------------------------------------7-------------------7---|
E|--------------------7---------------------------5-------------------5---------------------------|

0:31

G|------------------------------------------------------------------------------------------------|.
D|------------------------------------------------------------------------------------------------|.
A|------------------------------------------------5-----------------------5-----------------------|.
E|5-------------------5---5-------------------------------------------5---------------------------|.
                                                                                                   . x2
G|------------------------------------------------------------------------------------------------|.
D|------------------------------------------------------------------------------------------------|.
A|7-----------------------7-----------------------------------------------------------------------|.
E|--------------------7---------------------------5-------------------5---0-------2-------4-------|.

1:01

G|------------------------------------------------------------------------------------------------|
D|------------------------------------------------------------------------------------------------|
A|------------------------------------------------5-----------------------5-----------------------|
E|5-----------------------5-------------------------------------------5---------------------------|

G|------------------------------------------------------------------------------------------------|
D|------------------------------------------------------------------------------------------------|
A|7-----------------------7-----------------------------------------------7-------------------7---|
E|--------------------7---------------------------5-------------------5---------------------------|

1:16

G|------------------------------------------------------------------------------------------------|
D|------------------------------------------------------------------------------------------------|
A|------------------------------------------------5-----------------------5-----------------------|
E|5-------------------5---5-------------------------------------------5---------------------------|

G|------------------------------------------------------------------------------------------------|
D|------------------------------------------------------------------------------------------------|
A|7-----------------------7-----------------------------------------------------------------------|
E|--------------------7---------------------------5-------------------5---0-------------------0---|

1:31

G|------------------------------------------------------------------------------------------------|.
D|------------------------------------------------------------------------------------------------|.
A|------------------------------------------------5-----------------------5-----------------------|.
E|5-------------------5---5-------------------------------------------5---------------------------|.
                                                                                                   . x2
G|------------------------------------------------------------------------------------------------|.
D|------------------------------------------------------------------------------------------------|.
A|7-----------------------7-----------------------------------------------------------------------|.
E|--------------------7---------------------------5-------------------5---0-------2-------4-------|.

2:00

G|------------------------------------------------------------------------------------------------|
D|------------------------------------------------------------------------------------------------|
A|------------------------------------------------5-----------------------5-----------------------|
E|5-------------------5---5-------------------------------------------5---------------------------|

G|------------------------------------------------------------------------------------------------|
D|------------------------------------------------------------------------------------------------|
A|7-----------------------7-----------------------------------------------------------------------|
E|--------------------7---------------------------5-------------------5---0-------------------0---|

2:15

G|------------------------------------------------------------------------------------------------|
D|------------------------------------------------------------------------------------------------|
A|------------------------------------------------5-----------------------5-----------------------|
E|5-------------------5---5-------------------------------------------5---------------------------|

G|------------------------------------------------------------------------------------------------|
D|------------------------------------------------------------------------------------------------|
A|7-----------------------7-----------------------------------------------7-----------------------|
E|--------------------7---------------------------5-------------------5-----------------------0---|

2:31

G|------------------------------------------------------------------------------------------------|.
D|------------------------------------------------------------------------------------------------|.
A|------------------------------------------------5-----------------------5-----------------------|.
E|5-------------------5---5-------------------------------------------5---------------------------|.
                                                                                                   . x2
G|------------------------------------------------------------------------------------------------|.
D|------------------------------------------------------------------------------------------------|.
A|7-----------------------7-----------------------------------------------------------------------|.
E|--------------------7---------------------------5-------------------5---0-------2-------4-------|.

3:01

G|------------------------------------------------------------------------------------------------|
D|------------------------------------------------------------------------------------------------|
A|------------------------------------------------5-----------------------5-----------------------|
E|5-------------------5---5-------------------------------------------5---------------------------|

G|------------------------------------------------------------------------------------------------|
D|------------------------------------------------------------------------------------------------|
A|7-----------------------7-----------------------------------------------------------------------|
E|--------------------7---------------------------5-------------------5---5-----------------------|

G|------------------------------------------------------------------------------------------------|
D|------------------------------------------------------------------------------------------------|
A|--------------------7---------------------------------------------------------------------------|
E|0-----------------------0---------------------------5-------------------------------5-----------|
Suggest correction
Creating personal tab
Creating personal tab
You can edit any tab online and save it as your Personal.

You can edit, replace or remove any tab part or add personal notes – all changes will be seen only by you.

Personal tabs can be accessed anytime from any device, even offline.
Learn more »
Give kudos to tab author, rate the tab!
1 2 3 4 5
comments
print report bad tab
guest
You may want to rate the tab now too:
select rating
Wanna post a correction for this tab? Suggest correction