Oops, an error
Loading. Please wait.

A Little Bit Of Everything tab

version 1
version 1

Whole song

by Dawes
8,970 views 36 this week
1 commentread comment
1 2 3 4 5
x 10
add to favorites
×
Save as Personal and add changes to this tab that will be seen only by you. Learn more ›
×
You can save this tab as Personal to edit and correct it or add notes. All changes will be seen only by you. Learn more »
launch autoscroll
font size
0
reset
how to read this tab
guitar tuner
edit
Autoscroll
slow
fast
+/-
esc
set tempo
stop
Author
-------------------------------------------------------------------------------
        Dawes - A Little Bit of Everything (acoustic fingerpicking)
-------------------------------------------------------------------------------

Based on Undtidy Desk version: http://abcdigmusic.net.au/features/untidy-desk-dawes
Also used Rhythm & Roots 2011: http://www.youtube.com/watch?v=vin0U-ej1L8

He picks the melody notes in the verse & chorus differently each time throughout so
for the chorus I've just put the notes of the chord you land on for each change, the
bass part & the main melody lines that seem to be repeated.
Just pick any high notes of each chord that you're on while keeping the bass constant
& it should sound good.
Verse is the same as the intro without that little start bit and less pull-offs.
Listening closely to his playing you can hear all the cool little intricate picking
around the chord. (intricate for me anyway! haha)

If you haven't done any Travis picking check out:
Guitar Tutorial: Travis Picking / Ragtime Picking - Fingerstyle Lesson
http://www.youtube.com/watch?v=GX922uGLhNM

Try playing only the bass part (on E,A,D strings, with thumb) through the chord
changes first & get that down then add in the high melody.

Note the use of his thumb to fret the F & G chords.

Tuning: capo 5th, standard

Intro/Verse:
   C                       F               C
e|---------0-----------------------------------------------------------------|
B|-1---3-------------1-----3p1-------1-----1-------------------------1-------|
G|---------------0---------------2-------------------------------0-----------|
D|-----2-------2-------2-------3-------3-------2-------2-------2-------2-----|
A|-3-------3-------3-----------------------3-------3-------3-------3---------|
E|-------------------------1-------1-----------------------------------------|

   G                               C
e|-----------------0-------0---3---3-----------------------------------------|
B|-3-------------------3-------------------------1---------------------------|
G|-------------------------------------------0-------------------------------|
D|-----0-------0-------0-------0-------2-------2-------2-------2-------------|
A|---------------------------------3-------3-------3-------3-----------------|
E|-3-------3-------3-------3-------------------------------------------------|

   Am              Em/G            F
e|-0-------------------------------------------------------------------------|
B|-------1---------0---------0-----------1-------------------1---------------|
G|-----------2-----------0---------2p0-------------------0-------------------|
D|-----2-------2-------2-------2-------3-------3-------3-------3-------------|
A|-0-------0-----------------------------------------------------------------|
E|-----------------3-------3-------1-------1-------1-------1-----------------|

   C               F               C
e|---------------------------------------------------------------------------|
B|-1---------------------1-----3---1-----------------------------------------|
G|-----------0-----2---------------------------------------------------------|
D|-----2-------2-------3-------3-------2-------2-------2-------2-------------|
A|-3-------3-----------------------3-------3-------3-------3-----------------|
E|-----------------1-------1-------------------------------------------------|


Chorus:
   Am              C               Am              Em/G
e|---------------------------------------------------------------------------|
B|-1---------------1---------------1---------------0-------------------------|
G|---------------------------------------------------------------------------|
D|-----2-------2-------2-------2-------2-------2-------2-------2-------------|
A|-0-------0-------3-------3-------0-------0---------------------------------|
E|-------------------------------------------------3-------3-----------------|

   Am              C               G
e|---------------------------------------------------------------------------|
B|-------1---------1---------------3-----------------------------------------|
G|-2-------------------------0-------------------------------0---------------|
D|-----2-------2-------2-------2-------0-------0-------0-------0-------------|
A|-0-------0-------3-------3-------------------------------------------------|
E|---------------------------------3-------3-------3-------3-----------------|

   C               F               C               Am
e|---------------------------------------------------------------------------|
B|-1---------1---------------------1---------------1-------------------------|
G|-------0---------2---------2---------------0---------------2---------------|
D|-----2-------2-------3-------3-------2-------2-------2-------2-------------|
A|-3-------3-----------------------3-------3-------0-------0-----------------|
E|-----------------1-------1-------------------------------------------------|

   Am/G            G7              C (see chorus endings below)
e|---------------------------------------------------------------------------|
B|-1---------1-----3---------3-----1-----------------------------------------|
G|-------0---------------0---------------------------------------------------|
D|-----2-------2-------3-------3---------------------------------------------|
A|---------------------------------3-----------------------------------------|
E|-3-------3-------3-------3-------------------------------------------------|

   stupid little ring* (last chorus)
   C       G       Am
e|---------------------------------|
B|-1-------3-------1---------------|
G|-------0-------------------2-----|
D|-----2-------0-------2-------2---|
A|-3-------2-------0-------0-------|
E|---------------------------------|

1st chorus ending:
   C                               C
e|-0-------------------------------0-----------------------------------------|
B|-------1-------------------1-----------1-----------------------------------|
G|-----------------------0-------0-----------0-------------------------------|
D|-----2-------2-------2-------2-------2-------2-------2-------2-------------|
A|-3-------3-------3-------3-------3-------3-------3-------3-----------------|
E|---------------------------------------------------------------------------|

2nd chorus ending:
   C                               C
e|---------------------------------------------------------------------------|
B|-1---------1-----1---------1-----1---------1-----1-------------------------|
G|-------0-------0-------0-------0-------0-------0---------------------------|
D|-----2-------2-------2-------2-------2-------2-------2-------2-------------|
A|-3-------3-------3-------3-------3-------3-------3-------3-----------------|
E|---------------------------------------------------------------------------|

3rd chorus ending:
   C                               (then strummed chorus)
e|-----------------0---------------------------------------------------------|
B|-1---------1---------------1-----------------------------------------------|
G|-------0---------------0---------------------------------------------------|
D|-----2-------2-------2-------2---------------------------------------------|
A|-3-------3-------3-------3-------------------------------------------------|
E|---------------------------------------------------------------------------|


Strummed chorus:

Oh, its a little bit...          All these psychics...
   Am  C   Am  Em  F** C/G G     C   F   C   Am  C/G F   C/G Am  C/G F (starts picking)
e|-----------------------------|---------------------------------------------|
B|-1---1---1---0---1---1---3---|-1---1---1---1---1---1---1---1---1---1-------|
G|-2---0---2---0---2---0---0---|-0---2---0---2---0---2---0---2---0---2-------|
D|-2---2---2---2---3---2---0---|-2---3---2---2---2---3---2---2---2---3-------|
A|-0---3---0---2---0---3---2---|-3---3---3---0---3---3---3---0---3---3-------|
E|-------------0---1---3---3---|-----1-----------3---1---3-------3---1-------|

   C       G       Am              Am/G            G7                C/G
e|---------------------------------------------------------------------------|
B|-1-------3-------1---------------1---------------3-------------3---1-------|
G|-------0-------------------2---------------0---------------0-------0-------|
D|-----2-------0-------2-------2-------2-------2-------3-------3-----2-------|
A|-3-------2-------0-------0-----------------------------------------3-------|
E|---------------------------------3-------3-------3-------3---------3-------|

* Not sure if he plays this in the Untidy Desk version but he plays it on the Rhythm & Roots
one and it sounds really great.
**open A(3rd) on the first F chord maybe? Still have the 5th degree (C) on the B string.

            
            
Suggest correction
Creating personal tab
Creating personal tab
You can edit any tab online and save it as your Personal.

You can edit, replace or remove any tab part or add personal notes – all changes will be seen only by you.

Personal tabs can be accessed anytime from any device, even offline.
Learn more »
comments
print report bad tab
1 comment total.
0 reply
dwinterpeg 40 Oct 18, 2013 07:38 PM

Stuffed up a note position during the first F of the intro/verse, 1st fret on G string should be 1st fret on B string.
Sorry about that.

guest
You may want to rate the tab now too:
select rating
Wanna post a correction for this tab? Suggest correction