Oops, an error
Loading. Please wait.

Dont Send Me Away tab

by Dawes
901 views 6 this week
no commentswrite comment
1 2 3 4 5
1 last vote to show rating
add to favorites
×
Save as Personal and add changes to this tab that will be seen only by you. Learn more ›
×
You can save this tab as Personal to edit and correct it or add notes. All changes will be seen only by you. Learn more »
launch autoscroll
font size
0
reset
how to read this tab
guitar tuner
edit
Autoscroll
slow
fast
+/-
esc
set tempo
stop
Author
-------------------------------------------------------------------------------
                             Don't Send Me Away - Dawes
-------------------------------------------------------------------------------
Tabbed by:Jdn031

Tuning: Standard

Most of the song is done with finger picking
  
Intro x2   

   <     <     <     <     <     <     <     <     <     <     <     <
e|-2-2-2-2-2-2-2-2-|-2-2-2-2-2-2-2-2-|-2-2-2-2-2-2-2-2-|-2-2-2-2-2-2-2-2-----|
B|-5-5-5-5-5-5-5-5-|-5-5-5-5-5-5-5-5-|-5-5-5-5-5-5-5-5-|-5-5-5-5-5-5-5-5-----|
G|-4-4-4-4-4-4-4-4-|-4-4-4-4-4-4-4-4-|-4-4-4-4-4-4-4-4-|-4-4-4-4-4-4-4-4-----|
D|-----------------|-----------------|-----------------|---------------------|
A|-0-----0---------|-0-----0---------|-4-----4---------|---------------------|
E|-----------------|-----------------|-----------------|-0-----0-------------|

Verse

"You can send me a message if you don't wanna talk"

   <     <     <     <     <     <     <     <     <     <     <     <
e|-2-2-2-2-2-2-2-2-|-2-2-2-2-2-2-2-2-|-2-2-2-2-2-2-2-2-|-2-2-2-2-2-2-2-2-----|
B|-5-5-5-5-5-5-5-5-|-5-5-5-5-5-5-5-5-|-5-5-5-5-5-5-5-5-|-5-5-5-5-5-5-5-5-----|
G|-4-4-4-4-4-4-4-4-|-4-4-4-4-4-4-4-4-|-4-4-4-4-4-4-4-4-|-4-4-4-4-4-4-4-4-----|
D|-----------------|-----------------|-----------------|---------------------|
A|-0-----0---------|-0-----0---------|-4-----4---------|---------------------|
E|-----------------|-----------------|-----------------|-0-----0-------------|

"And make sure I don't interrupt"

   <     <     <     <     <     <     <     <     <     <     <     <
e|-2-2-2-2-2-2-2-2-|-2-2-2-2-2-2-2-2-|-2-2-2-2-2-2-2-2-|-2-2-2-2-2-2-2-2-----|
B|-5-5-5-5-5-5-5-5-|-5-5-5-5-5-5-5-5-|-5-5-5-5-5-5-5-5-|-5-5-5-5-5-5-5-5-----|
G|-4-4-4-4-4-4-4-4-|-4-4-4-4-4-4-4-4-|-4-4-4-4-4-4-4-4-|-4-4-4-4-4-4-4-4-----|
D|-----------------|-----------------|-----------------|---------------------|
A|-0-----0---------|-0-----0---------|-4-----4---------|---------------------|
E|-----------------|-----------------|-----------------|-0-----0-------------|

"It might help you let it go. It's hard for you, I know."

   <     <     <     <     <     <     <     <     <     <     <     <
e|-2-2-2-2-2-2-2-2-|-2-2-2-2-2-2-2-2-|-2-2-2-2-2-2-2-2-|-2-2-2-2-2-2-2-2-----|
B|-5-5-5-5-5-5-5-5-|-5-5-5-5-5-5-5-5-|-5-5-5-5-5-5-5-5-|-5-5-5-5-5-5-5-5-----|
G|-4-4-4-4-4-4-4-4-|-4-4-4-4-4-4-4-4-|-4-4-4-4-4-4-4-4-|-4-4-4-4-4-4-4-4-----|
D|-----------------|-----------------|-----------------|---------------------|
A|-0-----0---------|-0-----0---------|-4-----4---------|---------------------|
E|-----------------|-----------------|-----------------|-0-----0-------------|

"To act like you're not giving up"

   <     <     <     <     <     <     <     <     <     <     <     <
e|-2-2-2-2-2-2-2-2-|-2-2-2-2-2-2-2-2-|-2-2-2-2-2-2-2-2-|-2-2-2-2-2-2-2-2-----|
B|-5-5-5-5-5-5-5-5-|-5-5-5-5-5-5-5-5-|-5-5-5-5-5-5-5-5-|-5-5-5-5-5-5-5-5-----|
G|-4-4-4-4-4-4-4-4-|-4-4-4-4-4-4-4-4-|-4-4-4-4-4-4-4-4-|-4-4-4-4-4-4-4-4-----|
D|-----------------|-----------------|-----------------|---------------------|
A|-----------------|-----------------|-2-----2---------|-2-----2-------------|
E|-2-----2---------|-2-----2---------|-----------------|---------------------|


Chorus 

"But don't send me away. There's nowhere else I'm going to.

   <     <     <     <     <     <     <     <     <     <     <     <
e|-2-2-2-2-2-2-2-2-|-2-2-2-2-2-2-2-2-|-2-2-2-2-2-2-2-2-|-2-2-2-2-2-2-2-2-----|
B|-5-5-5-5-5-5-5-5-|-5-5-5-5-5-5-5-5-|-5-5-5-5-5-5-5-5-|-5-5-5-5-5-5-5-5-----|
G|-4-4-4-4-4-4-4-4-|-4-4-4-4-4-4-4-4-|-4-4-4-4-4-4-4-4-|-4-4-4-4-4-4-4-4-----|
D|-----------------|-----------------|-----------------|---------------------|
A|-0-----0---------|-4-----4---------|-----------------|-2-----2-------------|
E|-----------------|-----------------|-2-----2---------|---------------------|

"Don't send me away. I know that's what you want to do."
   <     <     <     <     <     <     <     <     <     <     <     <
e|-2-2-2-2-2-2-2-2-|-2-2-2-2-2-2-2-2-|-2-2-2-2-2-2-2-2-|-2-2-2-2-2-2-2-2-----|
B|-5-5-5-5-5-5-5-5-|-5-5-5-5-5-5-5-5-|-5-5-5-5-5-5-5-5-|-5-5-5-5-5-5-5-5-----|
G|-4-4-4-4-4-4-4-4-|-4-4-4-4-4-4-4-4-|-4-4-4-4-4-4-4-4-|-4-4-4-4-4-4-4-4-----|
D|-----------------|-----------------|-----------------|---------------------|
A|-0-----0---------|-4-----4---------|-----------------|-2-----2-------------|
E|-----------------|-----------------|-2-----2---------|---------------------|


"Don't send me away."

   <     <     <     <     <     <     <     <     <     <     <     <
e|-2-2-2-2-2-2-2-2-|-2-2-2-2-2-2-2-2-|-2-2-2-2-2-2-2-2-|-2-2-2-2-2-2-2-2-----|
B|-5-5-5-5-5-5-5-5-|-5-5-5-5-5-5-5-5-|-5-5-5-5-5-5-5-5-|-5-5-5-5-5-5-5-5-----|
G|-4-4-4-4-4-4-4-4-|-4-4-4-4-4-4-4-4-|-4-4-4-4-4-4-4-4-|-4-4-4-4-4-4-4-4-----|
D|-----------------|-----------------|-----------------|---------------------|
A|-0-----0---------|-----------------|-0-----0---------|---------------------|
E|-----------------|-0-----0---------|-----------------|-0-----0-------------|

"Don't send me away."

   <     <     <     <     <     <     <     <     <     <     <     <
e|-2-2-2-2-2-2-2-2-|-2-2-2-2-2-2-2-2-|-2-2-2-2-2-2-2-2-|-2-2-2-2-2-2-2-2-----|
B|-5-5-5-5-5-5-5-5-|-5-5-5-5-5-5-5-5-|-5-5-5-5-5-5-5-5-|-5-5-5-5-5-5-5-5-----|
G|-4-4-4-4-4-4-4-4-|-4-4-4-4-4-4-4-4-|-4-4-4-4-4-4-4-4-|-4-4-4-4-4-4-4-4-----|
D|-----------------|-----------------|-----------------|---------------------|
A|-0-----0---------|-----------------|-4-----4---------|-4-----4-------------|
E|-----------------|-2-----2---------|-----------------|---------------------|

Repeat intro

Repeat Verse
You can send me a picture of the room you’re in
with your evening downtown view
The way the city spreads when you’re laying in your bed
You can send it so I know what I can stand to lose

Repeat Chorus
But don’t send me away
This is where I’m supposed to be
Don’t send me away
You don’t know what you do to me
Don’t send me away
Don’t send me away
Don’t send me away

Bridge

"I'm getting on the freeway. Your jacket's in my car."

   <     <     <     <     <     <     <     <     <     <     <     <
e|-2-2-2-2-2-2-2-2-|-2-2-2-2-2-2-2-2-|-2-2-2-2-2-2-2-2-|-2-2-2-2-2-2-2-2-----|
B|-5-5-5-5-5-5-5-5-|-5-5-5-5-5-5-5-5-|-5-5-5-5-5-5-5-5-|-5-5-5-5-5-5-5-5-----|
G|-4-4-4-4-4-4-4-4-|-4-4-4-4-4-4-4-4-|-4-4-4-4-4-4-4-4-|-4-4-4-4-4-4-4-4-----|
D|-----------------|-----------------|-----------------|---------------------|
A|-4-----4---------|-4-----4---------|-4-----4---------|-4-----4-------------|
E|-----------------|-----------------|-----------------|---------------------|


"Your ashes in my ashtray. And I'm there with you wherever you are."

   <     <     <     <     <     <     <     <     <     <     <     <
e|-2-2-2-2-2-2-2-2-|-2-2-2-2-2-2-2-2-|-2-2-2-2-2-2-2-2-|-2-2-2-2-2-2-2-2-----|
B|-5-5-5-5-5-5-5-5-|-5-5-5-5-5-5-5-5-|-5-5-5-5-5-5-5-5-|-5-5-5-5-5-5-5-5-----|
G|-4-4-4-4-4-4-4-4-|-4-4-4-4-4-4-4-4-|-4-4-4-4-4-4-4-4-|-4-4-4-4-4-4-4-4-----|
D|-----------------|-----------------|-----------------|---------------------|
A|-4-----4---------|-4-----4---------|-4-----4---------|-4-----4-------------|
E|-----------------|-----------------|-----------------|---------------------|

Strum chords with pick

A     E     B

0     0     x
2     0     4
2     1     4
2     2     4
0     2     2
x     0     x

Solo

e|--11-11-11`--12-11-9-------------------------------------------------------|
B|---------------------12-10-9--12b14-12b14`--------------9----10-9----12--9-|
G|------------------------------------------------------9----9------9--------|
D|---------------------------------------------------11----------------------|
A|---------------------------------------------------------------------------|
E|---------------------------------------------------------------------------|

e|----------------------------------------------12---------------------------|
B|----7-5------------12-12--10-9----------12b14---14br12-----10-9---------9~-|
G|--------8-----------------------11~-----------------------------11-9-11----|
D|----------6`---------------------------------------------------------------|
A|---------------------------------------------------------------------------|
E|---------------------------------------------------------------------------|

e|----------------------------9-----9--11---12--9h11--11--------------------------|
B|------9-10--9-10/12---10h12----12----------------------12--10-9-----------------|
G|-9-11-----------------------------------------------------------9-8~--9-8--9/11-|
D|--------------------------------------------------------------------------------|
A|--------------------------------------------------------------------------------|
E|--------------------------------------------------------------------------------|

Chords used in last chorus

F#m    B     A     C#m   Eadd9     
  
9      7     0     4      2
10     7     2     5      0
11     8     2     6      1
11     9     2     6      2
9      9     0     4      2
x      7     x     x      0


Don’t send me away

There’s nowhere else I’m going to
        F#m              B
Don’t send me away
A                  C#m
I know that’s what you want to do
F#m                    B
Don’t send me away
A                  Eadd9
Don’t send me away
A                  Eadd9
Don’t send me away
A                 F#m

End on C#m

************************************

| /   slide up
| \   slide down
| h   hammer-on
| p   pull-off
| ~   vibrato
| +   harmonic
| x   Mute note
| b   Bend
| pb  Pre-bend
| br  Bend release
| pbr Pre-bend release
| brb Bend release bend

************************************

            
            
Suggest correction
Creating personal tab
Creating personal tab
You can edit any tab online and save it as your Personal.

You can edit, replace or remove any tab part or add personal notes – all changes will be seen only by you.

Personal tabs can be accessed anytime from any device, even offline.
Learn more »
Give kudos to tab author, rate the tab!
1 2 3 4 5
comments
print report bad tab
guest
You may want to rate the tab now too:
select rating
Wanna post a correction for this tab? Suggest correction